Alice in Chains

Alice in Chains - Bleed the freak intro bass tab

From: "Kato"

Subject: a/alice_in_chains/bleed_the_freak_intro.btab

Date: Sun, 25 Nov 2001 22:00:47 -0200

Alice in Chains

album: Facelift

Bleed the Freak

Bass intro

Gb|--------7--7-7-7/6--6-6-----------------------------|

Db|-4/9-9----------------------------------------------|

Ab|----------------------------------------------------|

Eb|----------------------------------------------------|

Gb|--------7-8--8~9-8-7--------------------------------|

Db|-4/9-9----------------------------------------------|

Ab|----------------------------------------------------|

Eb|----------------------------------------------------|

Gb|----------------------------------------------------|

Db|----9--5--7-7-5-------------------------------------|

Ab|-----------------7----------------------------------|

Eb|----------------------------------------------------|

kato@ig.com.br

Get this song at:  amazon.com

Share your thoughts

0 Comments found