Alice in Chains

Alice in Chains - All Alone guitar tab

#----------------------------------PLEASE NOTE--------------------------------#

#This file is the author's own work and represents their interpretation of the#

#song. You may only use this file for private study, scholarship, or research.#

#-----------------------------------------------------------------------------#

Mad Season · All Alone

By: baz@thevacuity.every1.net

* * * * * * * * * * * * * * *

Standard tuning

b = bend note

/ = slide up

= slide down

h = hammer-on

p = pull-off

This song is very simple. As Mike will often

do though is repeat one riff or progression,

with slight variations (improvising). So here

are the riffs to follow. Once you get the idea

it's straight ahead from there really.

NOTE: The times next to the riff are where

they appear for the 1st time, they will

most likey come about through-out the song

somewhere other than the time stated.

Riff i (0:01)

e-|----------------------|----------------------|-

B-|----------------------|----------------------|-

G-|--12-12-11-11--11-12--|--12-12-11-11--97p0--|-

D-|---0--0--0--0---0--0--|---0--0--0--0--0------|-

A-|----------------------|----------------------|-

E-|----------------------|----------------------|-

Riff ii (0:42)

e-|-------------------------|-

B-|--12-12-12-12-12--12-13--|-

G-|---0--0--0--0--0---0--0--|-

D-|-------------------------|-

A-|-------------------------|-

E-|-------------------------|-

Riff iii (1:36)

e-|-------------------------|-

B-|-------------------------|-

G-|-------------------------|-

D-|--7--7--7--7--7--7--7----|-

A-|--0--0--0--0--0--0--0----|-

E-|-------------------------|-

Riff iv (2:09)

e-|---------------------|-

B-|---------------------|-

G-|---------------------|-

D-|--0-4-2-0---0-4-2-0--|-

A-|---------------------|-

E-|---------------------|-

***********************************************

Mad Season · Head Full Of Lies

http://www.angelfire.com/rock2/madseason/

Get this song at:  amazon.com sheetmusicplus.com

Share your thoughts

0 Comments found