Alice in Chains

We've Become Tabs



More from Alice in Chains

Alice in Chains Tabs
Alice in Chains Chords
Alice in Chains Bass
Alice in Chains Lyrics



Song: We've Become
Location: January 1989 Demo Tape

Transcriber : Matt Rouse [an294@detroit.freenet.org]

Notes: This song has a nice dark/light/dark vibe to it. It's simply beautiful.
Drop D tuning, by the way.


[Intro] (Still needs some work, but it's on the right path...)
[Gtr.1 : Distorted Electric]
E|----------------------------------------------------------------|
B|--------10/11-11---------------------------------------11-------|
G|---------9/10-10---------------------------------------10-------|
D|---------7/-8--8----------------------------------------8-------|
A|---------7/-8--8----------------------------------------8-------|
D|-0---0-0-------8---0-0------------0---0-0-----0-0--0-0--8-------|


[Intro/Verse]
[Gtr.1 : Distorted Electric]
E|----------------------------------------------------------------|
B|----------------------------------------------------------------|
G|----------------------------------------------------------------|
D|---------7p0---7-8-----8~----------------7p0---7-8-----8~-------|
A|---------7p0---7-8-----8~----------------7p0---7-8-----8~-------|
D|-0---0-0-----0-----0-0-8~--------0---0-0-----0-0---0-0-8~-------|

P.M. P.M. P.M. P.M.


[Chorus]
[Gtr.1 : Distorted Electric] Left Speaker
E|----------------------------------------------------------------|
B|--3----3--------------------------------------------------------|
G|--2------2-------------------------2h3p2------------------------|
D|--0----------1---1-----2----3---3-------5-----------------------|
A|-------------1---1-----2----3---3-------------------------------|
D|--0----------1---1-----2----3---3-------------------------------|
| [Gtr.1 : Distorted Electric] Right Speaker |
E|----------------------------------------------------------------|
B|--3----3--------------------------------------------------------|
G|--2------2------------------------------------------------------|
D|--0----------1---1-----2----3---3--2h3p2------------------------|
A|-------------1---1-----2----3---3-------5-----------------------|
D|--0----------1---1-----2----3---3-------------------------------|

















[Interlude]
[Gtr.1 : Distorted Electric]
E|---------------------------------------------|
B|---------------------------------------------|
G|---------------------------------------------|
D|---------------------------------------------|
A|-0--0-0-5-8---0-0-3-6---0--0-0-1-4--0--0-----|
D|-0--0-0-5-8---0-0-3-6---0--0-0-1-4--0--0-----|



[Interlude] (cont.)
[Gtr.1 : Distorted Electric]
E|---------------------------------------------|
B|---------------------------------------------|
G|---------------------------------------------|
D|---------------------------------------------|
A|-0--0-0-5-8---0-0-3-6---0--0-0-1-4--0--0-3-5-|
D|-0--0-0-5-8---0-0-3-6---0--0-0-1-4--0--0-3-5-|


[Interlude] (cont.)
[Gtr.1 : Distorted Electric]
E|---------------------------------------------|
B|---------------------------------------------| Play
G|---------------------------------------------| Twice
D|---------------------------------------------|
A|-0--0-0-5-8---0-0-3-6---0--0-0-1-4--0--0-----|
D|-0--0-0-5-8---0-0-3-6---0--0-0-1-4--0--0-----|


[Interlude] (cont.)
[Gtr.1 : Distorted Electric]
E|---------------------------------------------|
B|---------------------------------------------| Play
G|---------------------------------------------| Twice
D|---------------------------------------------|
A|-0--0-0-5-8---0-0-3-6---0--0-0-1-4--0--0-----|
D|-0--0-0-5-8---0-0-3-6---0--0-0-1-4--0--0-----|



[Interlude] (cont.)
[Gtr.1 : Distorted Electric]
E|---------------------------------------------|
B|---------------------------------------------|
G|---------------------------------------------|
D|---------------------------------------------|
A|-3---3----3/5---5----------------------------|
D|-3---3-3--3/5---5----------------------------|
| [Gtr.1 : 12 String Acoustic] |
E|---------------------------------------------|
B|-5h6-6-5-8--8-8-8--5-5--3-3-3h5p3------------------|
G|-5---5-5-7-7-7-7---5-5--4-4-4-----4----------------|
D|----------------------------------5----------|
A|---------------------------------------------|
D|---------------------------------------------|


Get this song at amazon.com      Ebay     Ringtones Ringtones  


Learn to play: Songwriting, Piano, Harmonica, Guitar
More Alice In Chains lyrics available at Muzikum

Related Alice in Chains Tabs

All Alone tabs
Don't Follow tabs
Rooster Acoustic tabs
Would Unplugged tabs
We've Become tabs
Social Parasite tabs
Nutshell Unplugged tabs
Voices tabs
Blue tabs
The Devil Put Dinosaurs Here tabs
I Cant Remember tabs
Am I Inside tabs
Brother Acoustic tabs
Sickman tabs
Man In The Box Solo tabs
Shame On U tabs
Nutshell tabs
I Stay Away tabs
Rotten Apple Riff tabs
Sunshine tabs


Guitar Tabs









All tabs are property and copyright of their owners. All tabs provided for educational purposes only. Privacy Policy, DMCA