Alice in Chains

Them Bones Guitar Solo Tabs



More from Alice in Chains

Alice in Chains Tabs
Alice in Chains Chords
Alice in Chains Bass
Alice in Chains Lyrics




Them Bones
By Alice in Chains
Written by Jerry Cantrell


Tuning:
1/2 Step Down and
Drop D

6 = Db
5 = Ab
4 = Db
3 = Gb
2 = Bb
1 = Eb



bones.
eb|-------------------------------------------------------------------------|
Bb|-------------------------------------------------------------------------|
Gb|-------------------------------------------------------------------------|
Db|------------------------------------------------------------------10-----|
Ab|--8----------8----------10-------11-------10-10.7--8b------10s12--10-10--|
Db|----10-10-10---10-10-10----10-10----10-10-------------10-8---------------|
^
Harmonic

hold bend...............|
eb|-------------------------------------------------------------------------|
Bb|---------------------------------10--------------------------------------|
Gb|--12b14-12b16--------------r12---10h12p10--------------------------------|
Db|------------------------------------------12---10h12p10------------------|
Ab|--------------------------------------------------------12p10-10p8-------|
Db|-------------------------------------------------------------------------|



eb|-------------------------------------------------------------------------|
Bb|------------------------------------13-13-13v---11-10-11-10--------------|
Gb|-------------------------9v------9--------------------------10-----------|
Db|-------------------------------------------------------------------------|
Ab|--10b11---r10(10)p(8)----------------------------------------------------|
Db|-------------------------------------------------------------------------|


P.M.........................|
eb|-------------------------------------------------------------------------|
Bb|---------------------------10p11h10v---10-11-13b15--13-11-13-11-10v------|
Gb|----------------------9-10-----------------------------------------------|
Db|--12v-----------10-12----------------------------------------------------|
Ab|--------8-10-12----------------------------------------------------------|
Db|-------------------------------------------------------------------------|


hold bend..........|
eb|-----------------17---15--------13---------------------------------------|
Bb|--8-10-10b13----(10)--13--10s15----15b17------------10-10s15v------------|
Gb|-------------------------------------------------------------------------|
Db|-------------------------------------------------------------------------|
Ab|-------------------------------------------------------------------------|
Db|-------------------------------------------------------------------------|



eb|--20b22----20-18-17----17------------------------------------------------|
Bb|--------------------20----20b22r20-20-20-18----18------------------------|
Gb|--------------------------------------------19----19v--------------------|
Db|-------------------------------------------------------------------------|
Ab|-------------------------------------------------------------------------|
Db|-------------------------------------------------------------------------|



eb|-------------------------------------------------------------------------|
Bb|--18h20p18----18h20p18----18h20p18----18h20p18----18h20p18----18h20p18---|
Gb|-----------19----------19----------19----------19----------19----------19|
Db|-------------------------------------------------------------------------|
Ab|-------------------------------------------------------------------------|
Db|-------------------------------------------------------------------------|


|hold bend, whammy bar|
eb|-------------------------------------------------------------------------|
Bb|--18h20p18----------8b10-----8---8---8---8---8--r8----6-6b6.5------------|
Gb|-----------19v-------------------------------------7----------7----------|
Db|-------------------------------------------------------------------------|
Ab|-------------------------------------------------------------------------|
Db|-------------------------------------------------------------------------|


eb|-------------------------|
Bb|-------------------------|
Gb|--5h7-7-7-7-5-5----------|
Db|-----------------7s5s0---|
Ab|-------------------------|
Db|-------------------------|
Toll due......


Tabbed by: Severin, Severin



Get this song at amazon.com      Ebay     Ringtones Ringtones  


Learn to play: Songwriting, Piano, Harmonica, Guitar
More Alice In Chains lyrics available at Muzikum

Related Alice in Chains Tabs

Head Creeps tabs
Social Parasite tabs
Nutshell Acoustic tabs
I Know Somethin (Bout You) tabs
Lying Season tabs
Man In The Box tabs
Chemical Addiction tabs
Frogs (unplugged) tabs
Rooster (unplugged) tabs
Take Me Home tabs
Got Me Wrong Acoustic tabs
Over Now Acoustic tabs
Chewbacca tabs
Facelift Album tabs
Choke tabs
Brush Away Bass tabs
I Cant Have You Blues tabs
Born Again tabs
Put You Down tabs
Grind tabs


Guitar Tabs









All tabs are property and copyright of their owners. All tabs provided for educational purposes only. Privacy Policy, DMCA