Alice in Chains

Sunshine Bass Tabs



More from Alice in Chains

Alice in Chains Tabs
Alice in Chains Chords
Alice in Chains Bass
Alice in Chains Lyrics



SYMBOLS:
h = hammer on
: = let ring
/ and = slide
s = stacotto (short notes)

TUNING: Drop D

INTRO:

1 & 2 & 3 & 4 & 1 & 2 & 3 & 4 & 1 & 2 & 3 & 4 & 1 & 2 & 3 & 4 &
G:----------------|----------------|----------------|----------------|
D:----------------|----------------|----------------|---------01210--|
A:----------------|12:---------12-|0---------03-03-|0-------3-----30|
D:----------------|----------------|----------------|----------------|


MAIN VERSE RIFF:

1 & 2 & 3 & 4 & 1 & 2 & 3 & 4 & 1 & 2 & 3 & 4 & 1 & 2 & 3 & 4 &
G:----------------|----------------|----------------|----------------|
D:----------------|----------------|----------------|---------01210--|
A:0---0---00--0---|0---0---00-3--03|0---0---00------|0---0---3-----30|
D:--------------5-|----------------|-----------5--5-|----------------|


END VERSE:

1 & 2 & 3 & 4 & 1 & 2 & 3 & 4 & 1 & 2 & 3 & 4 & 1 & 2 & 3 & 4 &
G:----------------|----------------|----------------|----------------|
D:----------------|----------------|----------------|----------------|
A:0---0---00--0---|0---0---00-3--03|0---0---00------|0---0--00-0-000-|
D:--------------5-|----------------|-----------5--5-|---------------0|



RIFF A: "Then some dude came down to touch the mother"

1 & 2 & 3 & 4 &
G:----------------|
D:----------------|
A:----05--3-------|
D:--35-------3-3-0|



BRIDGE TO VERSE:

1 & 2 & 3 & 4 & 1 & 2 & 3 & 4 &
G:----------------|----------------|
D:----------------|---------01210--|
A:0-------00------|0---00--3-----30|
D:--------------5-|----------------|
ss



CHORUS: (slow down)

1 & 2 & 3 & 4 & 1 & 2 & 3 & 4 & 1 & 2 & 3 & 4 & 1 & 2 & 3 & 4 &
G:----------------|----------------|----------------|----------------|
D:----------------|----------------|----------------|----------------|
A:----------------|------------3-5-|0-----0---0-0---|1---1-----------|
D:0-----0---0-3-5-|3-----3---3-----|----------------|--------3---3/-|


RIFF B: "Memory...Set me Free"

1 & 2 & 3 & 4 & 1 & 2 & 3 & 4 & 1 & 2 & 3 & 4 & 1 & 2 & 3 & 4 &
G:----------------|----------------|----------------|----------------|
D:----------------|----------------|----------------|----------------|
A:----------------|------------3-5-|0---------------|1---1-----------|
D:0-----------3-5-|3---------------|----------------|--------3---3---|

VERSE 2:

1 & 2 & 3 & 4 & 1 & 2 & 3 & 4 & 1 & 2 & 3 & 4 & 1 & 2 & 3 & 4 &
G:----------------|----------------|----------------|----------------|
D:----------------|----------------|----------------|----------------|
A:0---0---00--0---|0---0---00-3--03|0---0---00------|0---0---00--0---|
D:--------------5-|----------------|-----------5--5-|----------------|



SONG STRUCTURE:


1) Intro
2) Main Verse Riff 2x
3) End Verse
4) Riff A 4x
5) Bridge to Verse
6) Main Verse Riff 2x
7) Riff A 8x
8) Chorus 4x
9) Riff B 2x
10) Main Verse Riff
11) Verse 2
12) Chorus 4x (slow down on last measure, end on low Db) D:0:------|



Get this song at amazon.com      Ebay     Ringtones Ringtones  


Learn to play: Songwriting, Piano, Harmonica, Guitar
Also available at Muzikum: Alice In Chains - Sunshine lyrics

Related Alice in Chains Bass Tabs

Dam That River bass
Nutshell Mtv Unplugged bass
Godsmack bass
Nutshell unplugged versions bass
Would bass
I Stay Away bass
Soical Parasite bass
Song bass
Man In The Box bass
Rain When I Die bass
Angry Chair bass
Sunshine bass
We Die Young bass
Sludge Factory bass
Nutshell bass
Roooster bass
Bleed the freak intro bass
Facelift bass
Them Bones bass
Hate To Feel bass


Guitar Tabs









All tabs are property and copyright of their owners. All tabs provided for educational purposes only. Privacy Policy, DMCA