Alice in Chains

Song Tabs



More from Alice in Chains

Alice in Chains Tabs
Alice in Chains Chords
Alice in Chains Bass
Alice in Chains Lyrics



Band: alice in chains
Song: Angry Chair (live) as played in concert
Album: Dirt (1992)
Tabbed by dan tuchalski (ObWnKnb@hotmail.com)
Tuning-standard (e,a,d,g,b,e)
^ = bend
(1/2) = how far to bend (half step)
=================angry chair===================================

(1/2) (1/2) (1/2) (1/2)
|---------------------------------------------------------------
|---------------------------------------------------------------
|---------------------------------------------------------------
|---------------------------------------------------------------
|------2----3^------2----3^---------2----3^------2----3^--------
|---0----0-------0----0----------0----0-------0----0------------


gtr 2 (let ring till verse begins)
|----------------------------------------------------------------
|----------------------------------------------------------------
|----------------------------------------------------------------
|-----------------------------3----------------------------------
|-----------------------------3----------------------------------
|-----------------------------1----------------------------------


(1/2) (1/2) (1/2) (1/2)
|---------------------------------------------------------------
|---------------------------------------------------------------
|---------------------------------------------------------------
|---------------------------------------------------------------
|------2----3^------2----3^---------2----3^------2----3^--------
|---0----0-------0----0----------0----0-------0----0------------


verse
(1/2) (1/2) (1/2) (1/2)
|---------------------------------------------------------------
|---------------------------------------------------------------
|---------------------------------------------------------------
|---------------------------------------------------------------
|------2----3^------2----3^---------2----3^------2----3^--------
|---0----0-------0----0----------0----0-------0----0------------
(1/2) (1/2)
|---------------------------------------------------------------
|---------------------------------------------------------------
|---------------------------------------------------------------
|---------------------------------------------------------------
|------2----3^------2----3^-------------------------------------
|---0----0-------0----0-----------------------------------------

verse 2 (1) (1) x2
|----------------------------------------------------------------
|----------------------------------------------------------------
|----------------------------------------------------------------
|---3---3---3---3---2---2--------3---3---3---3---2---2-----------
|---3---3---3---3---2---2--------3---3---3---3---2---2-----------
|---1---1---1---1---0---0---5^---1---1---1---1---0---0---5^------

pre-verse (1/2) (1/2) (1/2) (1/2)
|---------------------------------------------------------------
|---------------------------------------------------------------
|---------------------------------------------------------------
|---------------------------------------------------------------
|------2----3^------2----3^---------2----3^------2----3^--------
|---0----0-------0----0----------0----0-------0----0------------
(1/2) (1/2)
|---------------------------------------------------------------
|---------------------------------------------------------------
|---------------------------------------------------------------
|---------------------------------------------------------------
|------2----3^------2----3^-------------------------------------
|---0----0-------0----0-----------------------------------------

verse
(1/2) (1/2) (1/2) (1/2)
|---------------------------------------------------------------
|---------------------------------------------------------------
|---------------------------------------------------------------
|---------------------------------------------------------------
|------2----3^------2----3^---------2----3^------2----3^--------
|---0----0-------0----0----------0----0-------0----0------------
(1/2) (1/2)
|---------------------------------------------------------------
|---------------------------------------------------------------
|---------------------------------------------------------------
|---------------------------------------------------------------
|------2----3^------2----3^-------------------------------------
|---0----0-------0----0-----------------------------------------

chorus 1 (1) (1) x2
|----------------------------------------------------------------
|----------------------------------------------------------------
|----------------------------------------------------------------
|---3---3---3---3---2---2--------3---3---3---3---2---2-----------
|---3---3---3---3---2---2--------3---3---3---3---2---2-----------
|---1---1---1---1---0---0---5^---1---1---1---1---0---0---5^------







Chorus (1)(1)(1)
|----------------------------------------------------------------
|----------------------------------------------------------------
|----------------------------------------------------------------
|---7---9---4---5---7---9---2-------------7---9---4---5---7---9--
|---7---9---4---5---7---9---2-------------7---9---4---5---7---9--
|---5---7---2---3---5---7---0---5^-5^-5^--5---7---2---3---5---7--

x2 (1/2)
|----------------|-----------------------------------------------
|----------------|-----------------------------------------------
|----------------|-----------------------------------------------
|---2------------|---3---3---3---3---2---2-----------------------
|---2------------|---3---3---3---3---2---2-----------------------
|---0---5^-5^-5^-|---1---1---1---1---0---0---5^------------------


verse 2 (1/2) (1/2) x2
|----------------------------------------------------------------
|----------------------------------------------------------------
|----------------------------------------------------------------
|---3---3---3---3---2---2--------3---3---3---3---2---2-----------
|---3---3---3---3---2---2--------3---3---3---3---2---2-----------
|---1---1---1---1---0---0---5^---1---1---1---1---0---0---5^------

SOLO (I am getting to it when I am done figuring it out it will be on)

(1/2) (1/2) (1/2) (1/2)
|---------------------------------------------------------------
|---------------------------------------------------------------
|---------------------------------------------------------------
|---------------------------------------------------------------
|------2----3^------2----3^---------2----3^------2----3^--------
|---0----0-------0----0----------0----0-------0----0------------
(1/2) (1/2)
|---------------------------------------------------------------
|---------------------------------------------------------------
|---------------------------------------------------------------
|---------------------------------------------------------------
|------2----3^------2----3^-------------------------------------
|---0----0-------0----0-----------------------------------------


verse (1/2) (1/2) (1/2) (1/2)
|---------------------------------------------------------------
|---------------------------------------------------------------
|---------------------------------------------------------------
|---------------------------------------------------------------
|------2----3^------2----3^---------2----3^------2----3^--------
|---0----0-------0----0----------0----0-------0----0------------
(1/2) (1/2)
|---------------------------------------------------------------
|---------------------------------------------------------------
|---------------------------------------------------------------
|---------------------------------------------------------------
|------2----3^------2----3^-------------------------------------
|---0----0-------0----0-----------------------------------------

verse 2 (1) (1) x2
|----------------------------------------------------------------
|----------------------------------------------------------------
|----------------------------------------------------------------
|---3---3---3---3---2---2--------3---3---3---3---2---2-----------
|---3---3---3---3---2---2--------3---3---3---3---2---2-----------
|---1---1---1---1---0---0---5^---1---1---1---1---0---0---5^------

Chorus (1)(1)(1)
|----------------------------------------------------------------
|----------------------------------------------------------------
|----------------------------------------------------------------
|---7---9---4---5---7---9---2-------------7---9---4---5---7---9--
|---7---9---4---5---7---9---2-------------7---9---4---5---7---9--
|---5---7---2---3---5---7---0---5^-5^-5^--5---7---2---3---5---7--

x2 (1/2)
|----------------|-----------------------------------------------
|----------------|-----------------------------------------------
|----------------|-----------------------------------------------
|---2------------|---3---3---3---3---2---2-----------------------
|---2------------|---3---3---3---3---2---2-----------------------
|---0---5^-5^-5^-|---1---1---1---1---0---0---5^------------------


Chorus (1)(1)(1)
|----------------------------------------------------------------
|----------------------------------------------------------------
|----------------------------------------------------------------
|---7---9---4---5---7---9---2-------------7---9---4---5---7---9--
|---7---9---4---5---7---9---2-------------7---9---4---5---7---9--
|---5---7---2---3---5---7---0---5^-5^-5^--5---7---2---3---5---7--

x2 (1/2)(hold till end)
|----------------|-----------------------------------------------
|----------------|-----------------------------------------------
|----------------|-----------------------------------------------
|---2------------|---3---3---3---3---2---2-----------------------
|---2------------|---3---3---3---3---2---2-----------------------
|---0---5^-5^-5^-|---1---1---1---1---0---0---5^------------------

that’s it! This is a kick ass song good luck ill have the solo shortly.


Get this song at amazon.com      Ebay     Ringtones Ringtones  


Learn to play: Songwriting, Piano, Harmonica, Guitar
More Alice In Chains lyrics available at Muzikum

Related Alice in Chains Tabs

Dirt tabs
The Killer Is Me tabs
Would Solo tabs
Sickman tabs
Don't Follow tabs
Alone tabs
Frogs (unplugged) tabs
Between tabs
Shame In You tabs
Heaven Beside You*intro* tabs
The Devil Put Dinosaurs Here tabs
Brother Acoustic tabs
I Can't Have You Blues tabs
Chemical Addiction tabs
I Cant Have You Blues tabs
Facelift Album tabs
Got Me Wrong tabs
Frogs Bass tabs
Dam That River tabs
Frogs tabs


Guitar Tabs









All tabs are property and copyright of their owners. All tabs provided for educational purposes only. Privacy Policy, DMCA