Alice in Chains

Soical Parasite Bass Tabs



More from Alice in Chains

Alice in Chains Tabs
Alice in Chains Chords
Alice in Chains Bass
Alice in Chains Lyrics



Beginning riff, while the guitars doing it's thing:
Times 4
G------------------------------------------
D------------------------------------------
A---------------------------3--------5-----
E--0--------3------5-----------------------

Then, when after the fourth time, he just hits open E to a little
beat and this is played a couple times, then into the next part:

"You say you don't like the way we look......"

G-----------------------------------------------------------------
D------------------------------------------7-5-5-----------------
A------------------------------------------------------------------
E----0----3--5----5---6--3--0----0-3-0--0--------0-5-3-0--0-3-0
Then second time is a bitt different-
G-----------------------------------------------------------------
D------------------------------------------7-5-5-----------------
A------------------------------------------------------------------0 (hold this
for a bit)
E----0----3--5----5---6--3--0----0-3-0--0--------0-5-3-0--0-3---

Then after holding the open A, goto this:
A----------------------------------------0---(0)-----3---(3)--5-(5)-(hold these
for a bit)
E----0----3--5----5---6--3--0----0-3---------------------

"If you loved me would you call me a social parasite...."
Times 2

G----------------------
D----------------------
A---------------3--5---
E---0---3---5----------

Then again, go do the part thats the open E to the drum beat. Then Comes:
"You say you don't like the place I live, well get out..."

G-----------------------------------------------------------------
D------------------------------------------7-5-5-----------------
A------------------------------------------------------------------
E----0----3--5----5---6--3--0----0-3-0--0--------0-5-3-0--0-3-0
Then second time is a bitt different-
G-----------------------------------------------------------------
D------------------------------------------7-5-5-----------------
A------------------------------------------------------------------0 (hold this
for a bit)
E----0----3--5----5---6--3--0----0-3-0--0--------0-5-3-0--0-3---

Then after holding the open A, goto this:
A----------------------------------------0---(0)-----3---(3)--5-(5)-(hold these
for a bit)
E----0----3--5----5---6--3--0----0-3---------------------

"If you loved me would you call me a social parasite...."
Times 4

G----------------------
D----------------------
A---------------3--5---
E---0---3---5----------

Then after the last one of those, just hit an open E again.

"1, 2, 3, Go!"
Times 6
A-------------------------------------5------(5)---(5)---(5)
E----5----0--(0)---(0)---(0)-------5----------------------

Then back to

"You say you don't like the way we look......"

G-----------------------------------------------------------------
D------------------------------------------7-5-5-----------------
A------------------------------------------------------------------
E----0----3--5----5---6--3--0----0-3-0--0--------0-5-3-0--0-3-0
Then second time is a bitt different-
G-----------------------------------------------------------------
D------------------------------------------7-5-5-----------------
A------------------------------------------------------------------0 (hold this
for a bit)
E----0----3--5----5---6--3--0----0-3-0--0--------0-5-3-0--0-3---

Then after holding the open A, goto this:
A----------------------------------------0---(0)-----3---(3)--5-(5)-(hold these
for a bit)
E----0----3--5----5---6--3--0----0-3---------------------

G----------------------
D----------------------
A---------------3--5---
E---0---3---5----------



Get this song at amazon.com      Ebay     Ringtones Ringtones  


Learn to play: Songwriting, Piano, Harmonica, Guitar
More Alice In Chains lyrics available at Muzikum

Related Alice in Chains Bass Tabs

Roooster bass
Nutshell bass
Angry Chair bass
It Ain't Like That bass
Would bass
Them Bones bass
Junkhead bass
Down In The Hole bass
Brother bass
Frogs bass
Sunshine bass
Nutshell Mtv Unplugged bass
Queen Of The Rodeo bass
I Stay Away bass
Grind bass
Over Now bass
What The Hell Have I bass
Godsmack bass
Dont Follow bass
Nutshell Ver bass


Guitar Tabs









All tabs are property and copyright of their owners. All tabs provided for educational purposes only. Privacy Policy, DMCA