Alice in Chains

Sickman Bass Tabs



More from Alice in Chains

Alice in Chains Tabs
Alice in Chains Chords
Alice in Chains Bass
Alice in Chains Lyrics




note - weird time signatures, still fun, harder than most.

Intro - 106 bpm
Gb|-----------------|-----------------|-----------------|-----------------||
Db|-----------------|-----------------|-----------------|-----------------||
Ab|-----------------|-----------------|-----------------|-----------------||
Eb|-----------------|-----------------|-----------------|-----------------||

Riff 1 - 106 bpm
Gb|-----------------|-----------------|-----------------|-----------------||8x
Db|-----------------|-----------------|-----------------|-----------------||
Ab|-----333---3---3-|-----333---3---3-|-----333---3---3-|-----333---3---3-||
Eb|-2222---222-222-2|-2222---222-222-2|-2222---222-222-2|-2222---222-222-2||

Riff 2 - 106 bpm
Gb|-----------------|-----888---77--5-|-----------------|-----------------||
Db|-----------------|-7777---555--33--|-----------------|-----------------||
Ab|-----11----11--1-|-----------------|-----333---3---3-|-----333---3---3-||
Eb|-0000--0000-00---|-----------------|-2222---222-222-2|-2222---222-222-2||

Riff 3 - 46 bpm
Gb|-----------------|-----------------||
Db|-----------------|-----------------||
Ab|-/6-----0/6-----0|-/6-----0/6-\----||
Eb|-----------------|-----------------||

Riff 4 - 46 bpm
Gb|-----------------|-----------------|-----------------|-----------------|
Db|-------------5h7-|-----------------|-------------5h7-|-----------------|
Ab|-0-----0-6-5-----|-0-----0-5-----3-|-0-----0-6-5-----|-0-------0-3-3---|
Eb|-----------------|-----------------|-----------------|---------------5-|

Gb|-----------------|-----------------|-----------------|-----------------|
Db|-------------5h7-|-----------------|-------------5h7-|-----------------|
Ab|-3b--0---6-5-----|-0-----0-5-----3-|-0-----0-6-5-----|-0---0-3-3-------|
Eb|-----------------|-----------------|-----------------|-----------5-3b0-|

Gb|-----------------|-----------------|-----------------|-----------------|
Db|-----------------|-----------------|-----------------|-----------------|
Ab|-----------------|-----------------|-----------------|-----------------|
Eb|-6-----6-5-----5-|-3-3-5-3b--0-----|-6-----6-5-----5-|-3-3-5-3b--0-----|

Gb|-----------------|-----------------|-----------------|-----------------||
Db|-----------------|-----------------|-----------------|-----------------||
Ab|-----------------|-----------------|-----------------|-----------------||
Eb|-6-----6-5-----5-|-3-3-5-3b--0-----|-6-6-6-5-3-------|-(3)-------------||

Play Riff 1 8x [106 bpm]
Play Riff 2 [106 bpm]
Play Riff 3 [46 bpm]
Play Riff 4 [46 bpm]

Lead Into Next Section
Gb|-----------------|-----------------|-----------------||
Db|-----------------|-----------------|-----------------||
Ab|-----------------|-----------------|-----------------||
Eb|-(3)\\\\\\-------|-----------------|-----------------||

Riff 5 46 bpm
Gb|-----------------|-----------------|-----------------|-----------------||3x
Db|-----------------|-----------------|-----------------|-----------------||
Ab|-2-----2---------|-----------------|-2-----2---------|-----------------||
Eb|---------0-----0-|-3-----3-2-----2-|---------3-----3-|-0-----0-2-----2-||

Lead Into Guitar Solo
Gb|-----------------|-------------||
Db|-----------------|-------------||
Ab|-2-----2---------|-------------||
Eb|---------0-----0-|-3-3-3-2-2-2-||

Guitar Solo - 46 bpm 9/8 time sig.
Gb|-------------|-------------|-------------|-------------|
Db|-------------|-------------|-------------|-------------|
Ab|-/4---4------|-------------|-4-4-4-------|-------------|
Eb|-------5---5-|-4---4-3-3-3-|-------5-5-5-|-4-4-4-2-0-0-|

Gb|-------------|-------------|-------------|-------------|-------------|-------------||
Db|-------------|-------------|-------------|-------------|-------------|-------------||
Ab|-/4---4------|-------------|-4-4-4-------|-------------|-------------|-------------||
Eb|-------5---5-|-4---4-3-3-3-|-------5-5-5-|-4-4-4-2-0-0-|-4-----------|(4)----------||

Play Riff 1 7x
Play Riff 2
Play Riff 3

Riff 4a
Gb|-----------------|-----------------|-----------------|-----------------|
Db|-------------5h7-|-----------------|-------------5h7-|-----------------|
Ab|-0-----0-6-5-----|-0-----0-5-----3-|-0-----0-6-5-----|-0-------0-3-3---|
Eb|-----------------|-----------------|-----------------|---------------5-|

Gb|-----------------|-----------------|-----------------|-----------------|
Db|-------------5h7-|-----------------|-------------5h7-|-----------------|
Ab|-3b--0---6-5-----|-0-----0-5-----3-|-0-----0-6-5-----|-0---0-3-3-------|
Eb|-----------------|-----------------|-----------------|-----------5-3b0-|

Gb|-----------------|-----------------|-----------------|-----------------|
Db|-----------------|-----------------|-----------------|-----------------|
Ab|-----------------|-----------------|-----------------|-----------------|
Eb|-6-----6-5-----5-|-3-3-5-3b--0-----|-6-----6-5-----5-|-3-3-5-3b--0-----|

Gb|-----------------|-----------------|-----------------|-----------------|
Db|-----------------|-----------------|-----------------|-----------------|
Ab|-----------------|-----------------|-----------------|-----------------|
Eb|-6-----6-5-----5-|-3-3-5-3b--0-----|-6-6-6-5-3-------|-3-3-5-3b--0-----|

Gb|-----------------|-----------------|-----------------|-----------------|
Db|-----------------|-----------------|-----------------|-----------------|
Ab|-----------------|-----------------|-----------------|-----------------|
Eb|-6-6-6---5-5-5---|-3-3-5-3b--0-----|-6-6-6---5-5-5---|-3-3-5-3b--0-----|

Gb|-----------------|-----------------|-----------------|-----------------||
Db|-----------------|-----------------|-----------------|-----------------||
Ab|-----------------|-----------------|-----------------|-----------------||
Eb|-6-6-6---5-5-5---|-3-3-5-3b--0-----|-6-6-6-5-3-------|-(3)-------------||

questions/comments - fraberjam@hotmail.com



Get this song at amazon.com      Ebay     Ringtones Ringtones  


Learn to play: Songwriting, Piano, Harmonica, Guitar
Also available at Muzikum: Alice In Chains - Sickman lyrics

Related Alice in Chains Bass Tabs

We Die Young bass
Rain When I Die bass
Godsmack bass
Dam That River bass
I Stay Away bass
Dirt bass
Facelift bass
Fairy Tale Love Story bass
Soical Parasite bass
Grind bass
Right Turn bass
Over Now bass
Swing on this bass
What The Hell Have I bass
Nutshell Ver bass
Angry Chair bass
Again(awsome Song!!!) bass
Rooster bass
God Smack bass
Hate To Feel bass


Guitar Tabs









All tabs are property and copyright of their owners. All tabs provided for educational purposes only. Privacy Policy, DMCA