Alice in Chains

Sea Of Sorrow Tabs



More from Alice in Chains

Alice in Chains Tabs
Alice in Chains Chords
Alice in Chains Bass
Alice in Chains Lyrics



Sea Of Sorrow by Alice In Chains

From: Enrico Corinti (eddie@ascu.unian.it)

Tuning: Tune down 1/2 step

In the first part of song there's a great guitar intro I couldn't
understand......try the next time!!!!!!
The verse part is:

G5
||-3---------------------------------------------------------------------
||-3---------------------------------------------------------------------
||-0---------------------------------------------------------------------
||-0---------------------------------------------------------------------
||-2---------------------------------------------------------------------
||-3---------------------------------------------------------------------
" Mind of destructive taste,I choose to stroll among the waste still was..

F C5 (Bb) G5 (F) G5
-1-----------------------------------3--------------3----
-1----------------------5------------3--------------3----
-2----------------------5------------0--------------0----
-3----------------------5---------0--0-----------3/-0----
-3----------------------3---------5/-2-----------3/-2----
-1--------------------------------6/-3-----------1/-3----
...your heart lost in the dark,call off the chase......"

Now repeat this part for the 2nd verse with the words
"...walls of thought strong and high....".

After this there's the Pre-Chorus:

F C5 G5
You opened fire....and your mark was true
F C5 G5
you opened fire....aim my smiling skull at you
F C5 A(play it like in figure.1)
you opened fire........

Figure.1:

||-------------------------
||-------------------------
||-------------------------(X2)
||-7-----------------------
||-7-7--9-7-9-7-7----------
||-5-5--5-5-5-5-5----------

The chorus is played with these chords:

G A E
I live tomorrow.....
G A E
You are not follow....
G A E
As you wallow.......
G A E
In a sea of sorrow......

Well, those are the main parts......I'm working for the others, especially
for the great solo...!!!!
Bye,
Enrico


Get this song at amazon.com      Ebay     Ringtones Ringtones  


Learn to play: Songwriting, Piano, Harmonica, Guitar
Also available at Muzikum: Alice In Chains - Sea of sorrow lyrics

Related Alice in Chains Tabs

Hate To Feel (Version 2) tabs
Man In The Box Intro tabs
I Am Iron Glance tabs
We've Become tabs
Blue tabs
Godsmack tabs
I Stay Away tabs
Over Now tabs
Brush Away tabs
Choke tabs
Nutshell Bass tabs
Totten Apple Rif tabs
Got Me Wrong Acoustic tabs
So Close tabs
Rooster tabs
Them Bones tabs
The Killer Is Me tabs
Dirt tabs
Nutshell tabs
Sunshine tabs


Guitar Tabs









All tabs are property and copyright of their owners. All tabs provided for educational purposes only. Privacy Policy, DMCA