Alice in Chains

Roooster Bass Tabs



More from Alice in Chains

Alice in Chains Tabs
Alice in Chains Chords
Alice in Chains Bass
Alice in Chains Lyrics



Verse:
|----------4-2----------4-2----|
|--2-4-4--------2-2------------|
|------------------------------|
|--------5----------2-5-----5--|

Chorus:
|--4-6-7-11-9----------------4-2----4-6-7-11-9-----4-2--|
|-------------2-4-4--2-4-2-4-------------------2-2------|
|-------------------------------------------------------|
|---------------------------------5-----------------5---|



Get this song at amazon.com      Ebay     Ringtones Ringtones  


Learn to play: Songwriting, Piano, Harmonica, Guitar
More Alice In Chains lyrics available at Muzikum

Related Alice in Chains Bass Tabs

Nutshell unplugged versions bass
It Ain't Like That bass
I know something bass
Again(awsome Song!!!) bass
Would bass
Sunshine bass
Godsmack bass
Dirt bass
Again bass
Grind bass
Real Thing bass
Down In The Hole bass
Sickman bass
Nutshell bass
Them Bones bass
Brother bass
Fairy Tale Love Story bass
Got Me Wrong bass
Rotten Apple bass
Facelift bass


Guitar Tabs









All tabs are property and copyright of their owners. All tabs provided for educational purposes only. Privacy Policy, DMCA