Alice in Chains

Real Thing Tabs



More from Alice in Chains

Alice in Chains Tabs
Alice in Chains Chords
Alice in Chains Bass
Alice in Chains Lyrics

#


From TTwohig260@aol.com Thu May 8 14:10:41 1997


Real Thing by Alice in Chains. From the album Facelift
(1990) Lyrics by Layne Staley, music by Jerry Cantrell.
Transcribed by Tim Twohig

Here's most of the TAB for Real thing. The song has alot
of fills, which I don't have time to write right now. Also to
save time, I'm only putting each part once and a little outline.
Listen to the song to put it together just right. Enjoy!!

Intro: Clean Reapeat this part 12 more
times until "Don't Concern..."
---------------------------------------------------l--------------------------
--------------------------
---------------------------------------------------l--------------------------
--------------------------
---------------------------------------------------l--------------------------
--------------------------
---------------2------0
-------------------------l--------------2------0-----------------------------
---------------------------------------------------l--------------------------
--------------------------
------0--------------------------0-----1-----0--l-----------------------------
----0----1----0------

Verse : Repeat intro with distortion 7 times, then:
"Even if you say..."

-----------------------------------------------------------l------------------
--------------------------
-----------------------------------------------------------l------------------
--------------------------
-----------------------------------------------------------l------------------
--------------------------
------------------------------------------X-----------X---l-------------------
-----------X------X----
----0-H-2------3---3------------------X----3-----X--l----0-H-2----3---3-------
--X--3--X----
----0-H-2------2---2------------------X----2-----X--l----0-H-2----2---2-------
--X--2--X----

-----------------------------------------------------------l------------------
--------------------------
-----------------------------------------------------------l--------------2-B-
------------------------
----------------------------------------------------------l---------------2-B-
------------------------
-------------------------------------------X--------X----l-----3--------------
------------------------
----0--H--2------3--3------------------X---3---X----l-----2-------------------
-------------------
----0--H--2------2--2------------------X---2---X----l-------------------------
--------------------

Repeat Beginning part of verse 3 times then this fill:

-----5---3---0----------------------------------
-----5---3---0-----2-B-----0---0------------
---------------------2-B-----0---0------------
-------------------------------------------------
-------------------------------------------------
-------------------------------------------------

Chorus:
Go - ing down... Then the chords are full root six barre
chords. Listen to the
song
---------------2------------------ for the timing. Each chord I write
below indicates one strum.
---------------2------------------
----------------------------------- F# G G G F# G
F# F
----------------------------------- Repeat beginning verse riff 4
times, then:
-4-------------------------------- F# G F# G
G G F# G F# F
-2-------------------------------- Then repeat beginning verse
riff 4 more times and then go into
this really cool wah wah riff 4
times
and do some dive bombing with
your whammy bar:
With wah:
--------------------------------------------------------------
--------------------------------------------------------------
--------------------------------------------------------------
---------------2-----------------0---------------------------
---------------------------------------------------------------
------0----------------0-----------------0------1------0---

Then do entire verse, chorus, beginning verse riff, and the
the cool wah wah riff three times, ending with this chord (E9)
and some whammy bar action:

----------------------------------
-------------7-------------------
-------------7-------------------
-------------6-------------------
-------------7-------------------
-------------0-------------------

Email me if you want more of the fills at TTwohig260@aol.com
Get this song at amazon.com      Ebay     Ringtones Ringtones  


Learn to play: Songwriting, Piano, Harmonica, Guitar
Also available at Muzikum: Alice In Chains - Real thing lyrics

Related Alice in Chains Tabs

God Smack tabs
Rotten Apples tabs
Suffragette City tabs
All Alone tabs
Fear The Voices tabs
Frogs tabs
Sludge Factory tabs
Godsmack tabs
Brother tabs
Heaven Beside You Acoustic tabs
Chewbacca tabs
Killer Is Me Bass tabs
Sunshine tabs
Shame On U tabs
Them Bones tabs
Got Me Wrong Btab tabs
Grind tabs
No Excuses tabs
Would Solo tabs
What The Hell Have I Intro tabs


Guitar Tabs









All tabs are property and copyright of their owners. All tabs provided for educational purposes only. Privacy Policy, DMCA