Alice in Chains

Real Thing Bass Tabs



More from Alice in Chains

Alice in Chains Tabs
Alice in Chains Chords
Alice in Chains Bass
Alice in Chains Lyrics



intro
G|-------------------------------
D|-------------------------------
A|-------------------------------
E|-0-1-0----0-1-0--00--0-1-0-00--

verse
G|--------------------------
D|--------------------------
A|--------------------------
D|-0-1-0---00---------------

chorus
G|-----------------------------
D|-----------------------------
A|-----------------------------
D|-2--222-2-222-2-333-3-333----

bridge
G|-------------------------
D|-------------------------
A|-------------------------
D|--5--777-----------------

Taken from The BassMasta -- http://www.tabs-database.com



Get this song at amazon.com      Ebay     Ringtones Ringtones  


Learn to play: Songwriting, Piano, Harmonica, Guitar
Also available at Muzikum: Alice In Chains - Real thing lyrics

Related Alice in Chains Bass Tabs

Frogs bass
Heaven Beside You bass
Bleed the freak intro bass
Grind bass
Again bass
I Can't Remember bass
Man In The Box bass
Them Bones (correct Version) bass
Rooster bass
Facelift bass
Roooster bass
Down In A Hole bass
Over Now bass
We Die Young bass
Them Bones bass
Dirt bass
Leave Me Alone bass
Nutshell Ver bass
Brother bass
I know something bass


Guitar Tabs









All tabs are property and copyright of their owners. All tabs provided for educational purposes only. Privacy Policy, DMCA