Alice in Chains

Queen Of The Rodeo Bass Tabs



More from Alice in Chains

Alice in Chains Tabs
Alice in Chains Chords
Alice in Chains Bass
Alice in Chains Lyrics



Queen of the Rodeo
Alice in Chain
From Music Bank CD 1
Tabbed by: Nathaniel Harty

Tuning: Eb, Ab, Db, Gb

Verse

----------------------------
----------------------------
----------------------------
-3-3-3-3-2-0-0-0-0-2--------

At 2:02
----------------------------
-2-0------------------------
-----2-0---0----------------
---------3------------------

----------------------------
-----0---2-0----------------
---2---2-----2-0------------
-3--------------------------



Get this song at amazon.com      Ebay     Ringtones Ringtones  


Learn to play: Songwriting, Piano, Harmonica, Guitar
Also available at Muzikum: Alice In Chains - Queen Of The Rodeo lyrics

Related Alice in Chains Bass Tabs

Song bass
Bleed The Freak bass
Rooster bass
Sea Of Sorrow bass
Again bass
Bleed the freak intro bass
Rotton Apple bass
Would bass
Down In A Hole bass
Sludge Factory bass
Sunshine bass
Long Gone Day bass
Frogs bass
Dam That River 99.9 % bass
It Aint Like That bass
Swing on this bass
Junkhead bass
Angry Chair bass
No Excuses bass
Queen Of The Rodeo bass


Guitar Tabs









All tabs are property and copyright of their owners. All tabs provided for educational purposes only. Privacy Policy, DMCA