Alice in Chains

Over Now (unplugged) Tabs



More from Alice in Chains

Alice in Chains Tabs
Alice in Chains Chords
Alice in Chains Bass
Alice in Chains Lyrics



Over Now (unplugged) by Alice In Chains


Tabbed by Steve M. at maxmar@wire.net.au
(http://www.wire.net.au/~maxmar/index.html)

It took me a while to get the tuning right, but this song
is definitely played in an open Db tuning.

Here's the tuning changes below:

Normal Tune down New Db tuning
e 1+1/2 steps Db
B 1+1/2 Ab
G 1 F
D 1/2 Db
A 1/2 Ab
E 1+1/2 Db

b = bend p = pull off
r = release v = vibrato
s = slide x = palm mute
h = hammer on


INTRO + VERSE - both Jerry and Scott play this
Repeat the first bar several times during the verse where needed

e --------7--6--4--4--4--4--------4--4--4--4--------
B --x--x--4--4--4--7--6--4--x--x--4--4--4--4--x--x--
G --x--x--4--4--4--4--4--4--x--x--5--4--5--4--x--x--
D --x--x--4--4--4--4--4--4--x--x--4--4--4--4--x--x--
A --x--x--4--4--4--4--4--4--x--x--6--4--6--4--x--x--
E --------4--4--4--4--4--4--------4--4--4--4--------

e 3--2--0--0--0--0--------0--0--0--0--
B 0--0--0--3--2--0--x--x--0--0--0--0--
G 0--0--0--0--0--0--x--x--1--0--1--0--
D 0--0--0--0--0--0--x--x--0--0--0--0--
A ------------------x--x--2--0--2--0--
E ------------------------0--0--0--0--

CHORUS
Here are the chords used (not sure of their names)

#1 #2 #3
e ---7-- --6-- ---9--
B --10-- --9-- --12--
G ---7-- --6-- ---9--
D ---7-- --6-- ---9--
A ---7-- --6-- ---9--
E ---7-- --6-- ---9--

You know its been on my mind, could you stand right here,

#3
look me straight in the eye, and say that it's over now.


Riff 1 - played at 2:24 + 4:18, play several times

e --------------------------|--------------2-----------|
B --------0--0-----2--------|--4--------------4--------|
G -----3--------------3-----|-----3-----3--------3-----|
D --0-----------0--------4--|--------4--------------4--|
A --------------------------|--------------------------|
E --------------------------|--------------------------|

e --------------------------|--------------0-----------|
B --------0--0-----2--------|--4--------------4--------|
G -----3--------------3-----|-----3-----3--------3-----|
D --0-----------0--------4--|--------4--------------4--|
A --------------------------|--------------------------|
E --------------------------|--------------------------|

SOLO - At 2:46

e ----------------------|----------------------------|
B ----------------------|--------11--12-11-12-11-9v--|
G --7-8-s10-10-s12-12v--|--10-12---------------------|
D ----------------------|----------------------------|
A ----------------------|----------------------------|
E ----------------------|----------------------------|

e ------------------------------------|-----------------------|
B --9-11-12--12p11p9-9v-9-9----9------|-------------9---------|
G --------------------------10---10v--|--7-8-7--7br---7s5-3v--|
D ------------------------------------|-----------------------|
A ------------------------------------|-----------------------|
E ------------------------------------|-----------------------|

e ------------------------|-----------------------------------------|
B ------------------------|------------------------------------s11--|
G --5-3h5p3-2--3-2--------|------2-3s5-3v--5-7-5-5h7-8-7-8-7-8------|
D -----------------2-2h4--|--2h4------------------------------------|
A ------------------------|-----------------------------------------|
E ------------------------|-----------------------------------------|

e -------------------------|--------------------------|
B --11b-11-9---------------|--------------------------|
G -----------11-------12b--|--12-12-12-10-12-10v--8v--|
D ---------------11br---|--|--------------------------|
A --------------------hold-|--------------------------|
E --------------------bend-|--------------------------|

At 4:38 - Another little solo before the mellow stuff

e ----------------------|----------------------------|
B ----------------------|----------------------------|
G --7-8-10-10v-s12-12v--|--12--10-10-10-12-12-12-----|
D ----------------------|------------------------11--|
A ----------------------|----------------------------|
E ----------------------|----------------------------|

e ---------------------------------------------------------|
B ---------------------------------------------------------|
G -------12b--12r--12-12-12-12-12-12-12-12-12-12b-12r------|
D --11br---|------------------------------------------12v--|
A -------hold----------------------------------------------|
E -------bend----------------------------------------------|

At 4:52 - Both Jerry & Scott play this

e ----0-------0-------0-------0------|--------0-------0-------0-------0
B --------4-------4-------4-------4--|----4-------4-------4-------4----
G ------0---0---0---0---0---0---0----|------0---0---0---0---0---0---0--
D -----------------------------------|---------------------------------
A -----------------------------------|---------------------------------
E --4--------------------------------|--0------------------------------

e ----0-------0-------0-------0------|----0-------0-------0-------0----
B --------4-------4-------4-------4--|--------4-------4-------4-------4
G ------0---0---0---0---0---0---0----|------0---0---0---0---0---0---0--
D -----------------------------------|---------------------------------
A -----------------------------------|---------------------------------
E --4--------------------------------|--0------------------------------

e ----0-------0-------0-------0------|--------0-------0-------0-------0
B --------4-------4-------4-------4--|----4-------4-------4-------4----
G ------0---0---0---0---0---0---0----|------0---0---0---0---0---0---0--
D -----------------------------------|---------------------------------
A -----------------------------------|---------------------------------
E --4--------------------------------|--0------------------------------


* Harm.
e ----0-------0-------0-------0------|--12------|----0------
B --------4-------4-------4-------4--|--12------|--------4--
G ------0---0---0---0---0---0---0----|--12------|------0----
D -----------------------------------|--12------|-----------
A -----------------------------------|----------|-----------
E --4--------------------------------|----------|--4--------
Jerry ends with this...

e ----0------|--------------|--------------------
B --------4--|--------------|--------------------
G ------0----|--------12b---|--12--12b--12-------
D -----------|--11br----|---|---------------12v--
A -----------|--------hold--|--------------------
E --0--------|--------bend--|--------------------


Scott plays this (below) in time with jerry at *

e ---------|----0------|----0------|----0------|----0------
B ---------|--------4--|--------4--|--------4--|--------4--
G ---------|------0----|------0----|------0----|------0----
D ---------|-----------|-----------|-----------|-----------
A ---------|-----------|-----------|-----------|-----------
E --0------|--4--------|--0--------|--4--------|--0--------


Get this song at amazon.com      Ebay     Ringtones Ringtones  


Learn to play: Songwriting, Piano, Harmonica, Guitar
Also available at Muzikum: Alice In Chains - Over Now Unplugged lyrics

Related Alice in Chains Tabs

Waht The Hell Have I tabs
Head Creeps tabs
Song tabs
Facelift tabs
Dam That River tabs
God Am tabs
Angry Chair tabs
It Aint Like That tabs
Suffragette City tabs
Chewbacca tabs
Again tabs
Got Me Wrong (unplugged) tabs
Nutshell tabs
Would Solo tabs
Hate To Feel (Version 2) tabs
I Can't Remember tabs
Nutshell Bass tabs
Down In A Hole tabs
Shame In You tabs
Blood Tears Little Girl Acoustic tabs


Guitar Tabs









All tabs are property and copyright of their owners. All tabs provided for educational purposes only. Privacy Policy, DMCA