Alice in Chains

Nutshell Ver Bass Tabs



More from Alice in Chains

Alice in Chains Tabs
Alice in Chains Chords
Alice in Chains Bass
Alice in Chains Lyrics



Artist: Alice in Chains
Song: Nutshell
Tabber: c0z420

Tuning Eb Ab Db Gb

I know the main riff sounds good with the whole
song if u just play along with that, i dont know
about the rest of the song.

Main Riff:
Gb|--------------------------------|
DB|----------0---------------------|
Ab|-------------3---3-3-3-3-3------|
Eb|--0---3----------------------0~-|

Riff 2
Gb|--5---4-------------------------|
Db|---------5---4------------------|
Ab|----------------5----3----------|
Eb|-------------------------0------|

Riff 2
Gb|---------------------------|
Db|-------7---5---------------|
Ab|-7--5----------------------|
Eb|---------------------------|

Riff 3
Gb|-/12----12-11------------------|
Db|---------------12--------------|
Ab|-------------------12----------|
Eb|-----------------------12---0--|

Taken from The BassMasta -- http://www.tabs-database.com



Get this song at amazon.com      Ebay     Ringtones Ringtones  


Learn to play: Songwriting, Piano, Harmonica, Guitar
More Alice In Chains lyrics available at Muzikum

Related Alice in Chains Bass Tabs

Them Bones bass
God Smack bass
No Excuses bass
Soical Parasite bass
Facelift bass
Swing on this bass
Hate To Feel bass
Angry Chair (right Intro) bass
Would bass
Rooster bass
Angry Chair bass
Frogs bass
Queen Of The Rodeo bass
I Can't Remember bass
I Can Remember bass
Over Now bass
We Die Young bass
Rotton Apple bass
Sea Of Sorrow bass
Grind bass


Guitar Tabs









All tabs are property and copyright of their owners. All tabs provided for educational purposes only. Privacy Policy, DMCA