Alice in Chains

Nutshell Mtv Unplugged Bass Tabs



More from Alice in Chains

Alice in Chains Tabs
Alice in Chains Chords
Alice in Chains Bass
Alice in Chains Lyrics




Tune 1/2 step

wait for the guitar for a couple of bars.

Intro
Gb-----------------------------------|-5-4--------------------------------|
Db----------------------5/7--\5--(5)-|-----5---5-------------5/7--\5--(5)-|
Ab-3-3-3-3-5-------7--5--------------|-------3----------7--5--------------|
Eb-----------0-(0)-------------------|-----------0-(0)--------------------|

Gb-----------------------------------|-------------------------------------|
Db----------------------5/7--\5--(5)-|------------------------5/7--\5--(5)-|
Ab-3-3-3-3-5-------7--5--------------|-0-3-3-3-3-5-------7--5--------------|
Eb-----------0-(0)-------------------|-------------0-(0)-------------------|

Gb-----12-(12)--12-11---------------------|-------------------|
Db-5/x----------------12-----12-----------|------5/7--\5--(5)-|
Ab-----------------------12~--------------|-7--5--------------|
Eb------------------------------12-(12)\x-|-------------------|

Gb-------------------------------------|-5-4--------------------------------|
Db------------------------5/7--\5--(5)-|-----5---5-------------5/7--\5--(5)-|
Ab-0-3-3-3-3-5-------7--5--------------|-------3----------7--5--------------|
Eb-------------0-(0)-------------------|-----------0-(0)--------------------|

Gb---------------------------------------|-12-(12)--12-11---------------------|
Db------------------------5/7--\5--(5)/x-|----------------12-----12-----------|
Ab-0-3-3-3-3-5-------7--5----------------|-------------------12~--------------|
Eb-------------0-(0)---------------------|--------------------------12-(12)\x-|

Gb-------------------|-----12-(12)--12-11---------------------|
Db------5/7--\5--(5)-|-5/x----------------12-----12-----------|
Ab-7--5--------------|-----------------------12~--------------|
Eb-------------------|------------------------------12-(12)\x-|

Gb-------------------|---------------------------------------|
Db------5/7--\5--(5)-|------------------------5/7--\5--(5)/x-|
Ab-7--5--------------|-0-3-3-3-3-5-------7--5----------------|
Eb-------------------|-------------0-(0)---------------------|

Gb-5-4-------------------------------|-------------------------------------|
Db-----5---5------------5/7--\5--(5)-|*----------------------5/7--\5--(5)-*|
Ab-------3---------7--5--------------|*-3-3-3-3-5-------7--5--------------*|
Eb-----------0-(0)-------------------|------------0-(0)--------------------|

Gb-----12-(12)-12-11---------------------|
Db-5/x---------------12-----12-----------|
Ab----------------------12~--------------|
Eb-----------------------------12-(12)\x-|

Gb-------------------|-------------------------------------|
Db------5/7--\5--(5)-|------------------------5/7--\5--(5)-|
Ab-7--5--------------|-0-3-3-3-3-5-------7--5--------------|
Eb-------------------|-------------0-(0)-------------------|

Gb-5-4-------------------------------|-----12-(12)-12-11---------------------|
Db-----5---5------------5/7--\5--(5)-|-5/x---------------12-----12-----------|
Ab-------3---------7--5--------------|----------------------12~--------------|
Eb-----------0-(0)-------------------|-----------------------------12-(12)\x-|

Gb-------------------|--------------------|
Db------5/7--\5--(5)-|--------------------|
Ab-7--5--------------|-0-3-3-3-3-5--------|
Eb-------------------|-------------0--(0)-|

Slowly Fade Out At The End



Get this song at amazon.com      Ebay     Ringtones Ringtones  


Learn to play: Songwriting, Piano, Harmonica, Guitar
More Alice In Chains lyrics available at Muzikum

Related Alice in Chains Bass Tabs

Frogs bass
No Excuses bass
Grind bass
Rooster bass
Heaven Beside You bass
Queen Of The Rodeo bass
Them Bones bass
Over Now bass
Swing on this bass
God Smack bass
Sludge Factory bass
Put You Down bass
Facelift bass
Dirt bass
Down In A Hole bass
Got Me Wrong bass
Nutshell unplugged versions bass
Would bass
Man In The Box bass
Roooster bass


Guitar Tabs









All tabs are property and copyright of their owners. All tabs provided for educational purposes only. Privacy Policy, DMCA