Alice in Chains

No Excuses (unplugged) Tabs



More from Alice in Chains

Alice in Chains Tabs
Alice in Chains Chords
Alice in Chains Bass
Alice in Chains Lyrics



No Excuses (unplugged) by Alice In Chains


Tabbed by Steve M. at maxmar@wire.net.au
(http://www.wire.net.au/~maxmar/index.html)

Tuning: down 1/2 step

b = bend p = pull off
r = release v = vibrato
h = hammer on


INTRO + VERSE - repeat throughout the song

Aadd9 Badd4 Aadd9
e --0--0--0---0--0--0--0--0--0--0--0--0--0--0--
B --0--0--0---0--0--0--0--0--0--0--0--0--0--0--
G --6--6--8---8--8--8--8--8--8--8--8--8--6--6--
D --7--7--9---9--9--9--9--9--9--9--9--9--7--7--
A --7--7--9---9--9--9--9--9--9--9--9--9--7--7--
E --5--5--7---7--7--7--7--7--7--7--7--7--5--5--

CHORUS
Here are the other chords used

G6 E
e --0-- --0--
B --0-- --0--
G --4-- --1--
D --5-- --2--
A --5-- --2--
E --3-- --0--

G6 Aadd9 Badd4 Aadd9 (riff 1)
Every day it's something hits me all so cold.

G6 Aadd9 E
You find me sitting by myself, no excuses then I know.


Riff 1 - played by Scott

e --2--2h3p2p0------
B -------------3br--
G ------------------

SOLO

e --12p10----10------|-----------------------|--12p10----10------|
B --------12----12v--|-----------------------|--------12----12v--|
G -------------------|-----------------------|-------------------|
D -------------------|--14b16--14-12-14-12v--|-------------------|
A -------------------|-----------------------|-------------------|
E -------------------|-----------------------|-------------------|

e ----------------|---------------------------------|
B ----------------|---------------------------------|
G ----------------|-----------------------------14--|
D --12v--14--12v--|--12-14--14-15-14--14b-14-12-----|
A ----------------|---------------------------------|
E ----------------|---------------------------------|


e -----------------------|---------------------|
B --------------12-------|--12----12----12-----|
G --14-14-14-14----14br--|-----14----14----14--|
D -----------------------|---------------------|
A -----------------------|---------------------|
E -----------------------|---------------------|


Get this song at amazon.com      Ebay     Ringtones Ringtones  


Learn to play: Songwriting, Piano, Harmonica, Guitar
Also available at Muzikum: Alice In Chains - No Excuses (unplugged) lyrics

Related Alice in Chains Tabs

Killer Is Me Bass tabs
Leave Me Alone tabs
Phantom Limb tabs
Am I Inside tabs
Grind tabs
Junkhead tabs
Dont Follow tabs
Sap tabs
Blue tabs
Brother Acoustic tabs
Killing Yourself tabs
Whale And Wasp Bass tabs
Suffragette City tabs
Swing on this tabs
I Can't Remember tabs
Totten Apple Rif tabs
Brush Away tabs
Greatest Hits Album tabs
Social Parasite tabs
Sunshine tabs


Guitar Tabs









All tabs are property and copyright of their owners. All tabs provided for educational purposes only. Privacy Policy, DMCA