Alice in Chains

No Excuses (standard Tuning For Beginners) Bass Tabs



More from Alice in Chains

Alice in Chains Tabs
Alice in Chains Chords
Alice in Chains Bass
Alice in Chains Lyrics




No Excuses - Alice In Chains - Jar of Flies

Tabbed By: Ty W. (tydogg2443@aol.com)

Tuning: Standard(E,A,D,G)


Ive read other tabs that claim its tuned down a quarter or half-step.
Those other tabs are great... Ive tried them myself and theyre
fine. But since Im lazy, I tabbed this song using the standard
EADG tuning for other lazy people like me as well as beginners.
It sounds fine. If you don't compare the two side-by-side, you
wouldn't know the difference.
Also, for those beginners out there... This is an easy song.
Don't get discouraged if it seems too fast. If you practice it
for a little bit, you can catch on pretty quickly. =D

________________________________________________________________


VERSE
G)----------------------------------
D)-------------10--8----------------
A)----------------------8--6--8-----
E)---4h6-6--------------------------


CHORUS
G)----------------------------------
D)----------------------------------
A)----------------------------------
E)-2-2-2-2-2-2-2-2--4-4-4-4-4-4-4-4-

(cont.)
G)----------------------------------
D)----------------------------------
A)----------------------------------
E)-6-6-6-6-6-6-6-6-6-6-6-6-6-6-6-6--

_______________________________________________________________


Throw in variations whereever you want...

CHORUS VARIATION
G)------------------------------------------
D)------------------------------------------
A)-9-9-9-9-9-9-9-9--11-11-11-11-11-11-11-11-
E)------------------------------------------


(cont.) VARIATION 1
G)----------------------------------
D)----------------------------------
A)----------------------------------
E)-6-6-6-6-6-6-6-6-6-6-6-6-6-6-6-8h/

(cont.) VARIATION 2
G)----------------------------------
D)-8-8-8-8-8-8-8-8-8-8-8-8-8-8-8-8--
A)----------------------------------
E)----------------------------------

_______________________________________________________________

ORDER/STRUCTURE

1) Drum Intro
2) Verse 12x
3) Chorus
4) Verse 12x
5) Chorus
6) Verse 4x
7) Chorus (guitar solo)
8) Verse 8x
9) Chorus
10) Verse (slows down then ends)

_______________________________________________________________


Im aware the CHORUS is off, but Im finding it hard to translate
the quarter-step/half-step variations to standard tuning.
But if youre playing it with a band in standard tuning, this will do.
Play around with it and maybe youll find some cool variations
of your own.



Get this song at amazon.com      Ebay     Ringtones Ringtones  


Learn to play: Songwriting, Piano, Harmonica, Guitar
More Alice In Chains lyrics available at Muzikum

Related Alice in Chains Bass Tabs

Hate To Feel bass
Right Turn bass
Them Bones bass
Put You Down bass
Man In The Box bass
No Excuses bass
Grind bass
Real Thing bass
Heaven Beside You bass
Leave Me Alone bass
Soical Parasite bass
Rain When I Die bass
Bleed the freak intro bass
Down In The Hole bass
Sickman bass
Brother bass
Bleed The Freak bass
I Can Remember bass
It Ain't Like That bass
Dam That River bass


Guitar Tabs









All tabs are property and copyright of their owners. All tabs provided for educational purposes only. Privacy Policy, DMCA