Alice in Chains

King Of The Kats Tabs



More from Alice in Chains

Alice in Chains Tabs
Alice in Chains Chords
Alice in Chains Bass
Alice in Chains Lyrics



Song : King Of The Kats
Location: Heroin

Transcriber: Matt Rouse [an294@detroit.freenet.org]

Origin: This file originally came from "Alice In Chains: The Rarities"
Check us out at: http://www.epalis.com/AliceInChains

Notes: The verse and chorus are missing, and there's a faint lead guitar
that doubles with the bridge. The verse is just a variation of
third intro figure. I plan on filling in all the little blanks
when I have some more free time.


[Intro]
[Gtr.1 Electric w/Distortion]
Eb|-------------------------------------------------------------------|
Bb|-------------------------------------------------------------------|
Gb|-------------------------------------------------------------------|
Db|------------------------------5h7p5h7p5h7p5h7p5h7p5h7p5h7p5--------|
Ab|-------------------------------------------------------------------|
Eb|-0-0-1-2-3----------0-0-1-2-3-------------------------------1/151-|


[Intro] (cont.)
[Gtr.1 Electric w/Distortion]
Eb|-----------------------------------------|
Bb|-----------------------------------------|
Gb|-----------------------------------------|
Db|-----------------------------------------|
Ab|-----------------------------------------|
Eb|-0-0-1-2-3-----------0-0-1-2-3-----------|

[Intro] (cont.)
[Gtr.1 Electric w/Distortion]
Eb|------------------------------------------------------------------|
Bb|------------------------------------------------------------------| Play
Gb|------------------------------------------------------------------| Twice
Db|-----------------5-6-7-------5~-------------------5-6-7-------5~--|
Ab|-----------3-4-5-------5-6-7----------------3-4-5-------5-6-7-----|
Eb|-0-0-1-2-3------------------------0-0-1-2-3-----------------------|
* *
* * * * * * * * * * * * * * * * * *
*
* * Gtr.1: Use Wah to
simulate cat cry.

[Intro] (cont.)
[Gtr.1 Electric w/Distortion]
Eb|-----------------------------------------------------|
Bb|-----------------------------------------------------| Play
Gb|-----------------------------------------------------| Twice
Db|-------9-7--7-7--------------------------------------|
Ab|-2-2---7-5--5-5--5-7-7-5-2--2-2---2-7--7-7-8-9-9-5-2-|
Eb|-0-0-3-----------3-5-5-3-0--0-0-3-0-5--5-5-6-7-7-3-0-|
P.M.


[Verse]


[Chorus]


[Before Verse]
[Gtr.1 Electric w/Distortion]
Eb|-----------------------------------------------------|
Bb|-----------------------------------------------------| Play
Gb|-----------------------------------------------------| Twice
Db|-------9-7--7-7--------------------------------------|
Ab|-2-2---7-5--5-5--5-7-7-5-2--2-2---2-7--7-7-8-9-9-5-2-|
Eb|-0-0-3-----------3-5-5-3-0--0-0-3-0-5--5-5-6-7-7-3-0-|
P.M.


[Verse]


[Chorus]


[Bridge]
[Gtr.1 Electric w/Distortion]
Eb|-----------------------------------------------|
Bb|-----------------------------------------------| Play
Gb|-----------------------------------------------| Four
Db|-----------------------------------------------| Times
Ab|-5h6h7------------------5h6h7------------------|
Eb|------5h6h7-3b4p0-0-0-0------5h6h7-3b4p0-0-0-0-|

[Bridge] (cont.)
[Gtr.1 Electric w/Distortion]
Eb|-----------------------------------------------|
Bb|-----------------------------------------------|
Gb|-----------------------------------------------|
Db|-5h6h7------------------5h6h7------------------|
Ab|------5h6h7-3b4p0-0-0-0------5h6h7-3b4p0-0-0-0-|
Eb|-----------------------------------------------|

[Bridge] (cont.)
[Gtr.1 Electric w/Distortion]
Eb|-----------------------------------------------|
Bb|-----------------------------------------------|
Gb|-----------------------------------------------|
Db|-----------------------------------------------|
Ab|-5h6h7------------------5h6h7------------------|
Eb|------5h6h7-3b4p0-0-0-0------5h6h7-3b4p0-0-0-0-|

[Bridge] (cont.)
[Gtr.1 Electric w/Distortion]
Eb|-----------------------------------------------|
Bb|-----------------------------------------------|
Gb|-----------------------------------------------|
Db|-7h8h9------------------5h6h7------------------|
Ab|------7h8h9-5b6--------------5h6h7-3b4p0-0-0-0-|
Eb|----------------7-7-7-7------------------------|

[Bridge] (cont.)
[Gtr.1 Electric w/Distortion]
Eb|------------------------------------------------------------------|
Bb|------------------------------------------------------------------| Play
Gb|------------------------------------------------------------------| Twice
Db|-----------------5-6-7-------5~-------------------5-6-7-------5~--|
Ab|-----------3-4-5-------5-6-7----------------3-4-5-------5-6-7-----|
Eb|-0-0-1-2-3------------------------0-0-1-2-3-----------------------|
* *
* * * * * * * * * * * * * * * * * *
*
* * Gtr.1: Use Wah to
simulate cat cry.


[Chorus]


[Outro]
[Gtr.1 Electric w/Distortion]
Eb|-----------------------------------------------------|
Bb|-----------------------------------------------------| Play
Gb|-----------------------------------------------------| Twice
Db|-------9-7--7-7--------------------------------------|
Ab|-2-2---7-5--5-5--5-7-7-5-2--2-2---2-7--7-7-8-9-9-5-2-|
Eb|-0-0-3-----------3-5-5-3-0--0-0-3-0-5--5-5-6-7-7-3-0-|
P.M.


[Last Chords]


Get this song at amazon.com      Ebay     Ringtones Ringtones  


Learn to play: Songwriting, Piano, Harmonica, Guitar
Also available at Muzikum: Alice In Chains - King Of The Kats lyrics

Related Alice in Chains Tabs

Nutshell Bass tabs
Got Me Wrong (unplugged) tabs
Dam That River Bass tabs
Fear The Voices tabs
Rotten Apple tabs
Nutshell tabs
Frogs tabs
Facelift tabs
Grind tabs
Greatest Hits Album tabs
Sap Album tabs
Distance Aside tabs
Down In A Hole tabs
Phantom Limb tabs
Sludge Factory tabs
All Alone tabs
Social Parasite tabs
Killing Yourself tabs
Killer Is Me, The tabs
Killer Is Me (unplugged) tabs


Guitar Tabs









All tabs are property and copyright of their owners. All tabs provided for educational purposes only. Privacy Policy, DMCA