Alice in Chains

Killing Yourself Tabs



More from Alice in Chains

Alice in Chains Tabs
Alice in Chains Chords
Alice in Chains Bass
Alice in Chains Lyrics



Song : Killing Yourself
Location: We Die Young EP, Heroin, Seattle Scruffs

Transcriber: Matt Rouse [an294@detroit.freenet.org]

Origin: This file originally came from "Alice In Chains: The Rarities"
Check us out at: http://www.epalis.com/AliceInChains

Notes: Jerry makes heavy use of a wah-wah pedal in this song,
but I didn't bother to indicate where. If you really want
this to sound authentic, you will need a copy of the song
at your disposal. This transcription is still missing the
solo and parts of the verse.


[Intro]
[Gtr.1 Electric w/Distortion]
Eb|---------------|---------------|---------------|---------------|
Bb|---------------|---------------|---------------|---------------|
Gb|---------------|---------------|---------------|---------------|
Db|---------------|---------------|---------------|---------------|
Ab|-7p5---5-------|---------------|-7p5---5-------|---------------|
Eb|-----7---------|-0-2-3-4-3-2-0-|-----7---------|-0-2-3-4-3-2-0-|

[Intro] (cont.)
[Gtr.1 Electric w/Distortion]
Eb|-------------0-|---------------|-------------0-|---------------|
Bb|-------------0-|---------------|-------------0-|---------------|
Gb|---------------|---------------|---------------|---------------|
Db|---------------|---------------|---------------|---------------|
Ab|-7p5---5-------|---------------|-7p5---5-------|---------------|
Eb|-----7-----3---|-0-2-3-4-3-2-0-|-----7-----3---|-0-2-3-4-3-2-0-|

[Intro] (cont.)
[Gtr.1 Electric w/Distortion]
Eb|-------------0-|---------------|-------------0-|---------------|
Bb|-------------0-|---------------|-------------0-|---------------|
Gb|---------------|---------------|---------------|---------------|
Db|---------------|---------------|---------------|---------------|
Ab|-7p5---5-------|---------------|-7p5---5-------|---------------|
Eb|-----7-----3---|-0-2-3-4-3-2-0-|-----7-----3---|-0-2-3-4-3-2-0-|


[Verse 1]
[Gtr.1 Electric w/Distortion]
Eb|---------------|---------------|---------------|---------------|
Bb|---------------|---------------|---------------|---------------|
Gb|---------------|---------------|---------------|---------------|
Db|---------------|---------------|---------------|---------------|
Ab|---------------|---------------|---------------|---------------|
Eb|---------------|---------------|---------------|---------------|

[Verse 1] (cont.)
[Gtr.1 Electric w/Distortion]
Eb|---------------|---------------|---------------|---------------|
Bb|---------------|---------------|---------------|---------------| Play
Gb|---------------|---------------|---------------|---------------| Twice
Db|---------------|---------------|---------------|---------------|
Ab|---------------|---------------|---------------|---------------|
Eb|---------------|---------------|---------------|---------------|


[PreChorus 1]
[Gtr.1 Electric w/Distortion]
Eb|---------------|---------------|---------------|---------------|
Bb|---------------|---------------|---------------|---------------| Play
Gb|---------------|---------------|---------------|---------------| Twice
Db|---------------|---------------|---------------|---------------|
Ab|-9-8-7---75-2-|-2-2-2-2-2-2-2-|-7-8-9---75-2-|-2-2-2-2-2-2-2-|
Eb|-7-6-5---53-0-|-0-0-0-0-0-0-0-|-5-6-7---53-0-|-0-0-0-0-0-0-0-|



[Chorus 1]
[Gtr.1 Electric w/Distortion]
Eb|-------------0-|---------------|-------------0-|---------------|
Bb|-------------0-|---------------|-------------0-|---------------| Play
Gb|---------------|---------------|---------------|---------------| Twice
Db|---------------|---------------|---------------|---------------|
Ab|-7p5---5-------|---------------|-7p5---5-------|---------------|
Eb|-----7-----3---|-0-2-3-4-3-2-0-|-----7-----3---|-0-2-3-4-3-2-0-|


[Verse 2]
[Gtr.1 Electric w/Distortion]
Eb|---------------|---------------|---------------|---------------|
Bb|---------------|---------------|---------------|---------------|
Gb|---------------|---------------|---------------|---------------|
Db|---------------|---------------|---------------|---------------|
Ab|---------------|---------------|---------------|---------------|
Eb|---------------|---------------|---------------|---------------|

[Verse 2] (cont.)
[Gtr.1 Electric w/Distortion]
Eb|---------------|---------------|---------------|---------------|
Bb|---------------|---------------|---------------|---------------| Play
Gb|---------------|---------------|---------------|---------------| Twice
Db|---------------|---------------|---------------|---------------|
Ab|---------------|---------------|---------------|---------------|
Eb|---------------|---------------|---------------|---------------|


[PreChorus 2]
[Gtr.1 Electric w/Distortion]
Eb|---------------|---------------|---------------|---------------|
Bb|---------------|---------------|---------------|---------------| Play
Gb|---------------|---------------|---------------|---------------| Twice
Db|---------------|---------------|---------------|---------------|
Ab|-9-8-7---75-2-|-2-2-2-2-2-2-2-|-7-8-9---75-2-|-2-2-2-2-2-2-2-|
Eb|-7-6-5---53-0-|-0-0-0-0-0-0-0-|-5-6-7---53-0-|-0-0-0-0-0-0-0-|



[Solo]
[Gtr.1 Electric w/Distortion]
Eb|---------------|---------------|---------------|---------------|
Bb|---------------|---------------|---------------|---------------|
Gb|---------------|---------------|---------------|---------------|
Db|---------------|---------------|---------------|---------------|
Ab|-9-8-7---75-2-|-2-2-2-2-2-2-2-|-7-8-9---75-2-|-2-2-2-2-2-2-2-|
Eb|-7-6-5---53-0-|-0-0-0-0-0-0-0-|-5-6-7---53-0-|-0-0-0-0-0-0-0-|
| |
| [Gtr.2 Electric w/Distortion] |
Eb|---------------|---------------|---------------|---------------|
Bb|---------------|---------------|---------------|---------------|
Gb|---------------|---------------|---------------|---------------|
Db|---------------|---------------|---------------|---------------|
Ab|---------------|---------------|---------------|---------------|
Eb|---------------|---------------|---------------|---------------|

[Solo] (cont.)
[Gtr.1 Electric w/Distortion]
Eb|---------------|---------------|---------------|---------------|
Bb|---------------|---------------|---------------|---------------|
Gb|---------------|---------------|---------------|---------------|
Db|---------------|---------------|---------------|---------------|
Ab|-9-8-7---75-2-|-2-2-2-2-2-2-2-|-7-8-9---75-2-|-2-2-2-2-2-2-2-|
Eb|-7-6-5---53-0-|-0-0-0-0-0-0-0-|-5-6-7---53-0-|-0-0-0-0-0-0-0-|
| |
| [Gtr.2 Electric w/Distortion] |
Eb|---------------|---------------|---------------|---------------|
Bb|---------------|---------------|---------------|---------------|
Gb|---------------|---------------|---------------|---------------|
Db|---------------|---------------|---------------|---------------|
Ab|---------------|---------------|---------------|---------------|
Eb|---------------|---------------|---------------|---------------|

[Solo] (cont.)
[Gtr.1 Electric w/Distortion]
Eb|---------------|---------------|---------------|---------------|
Bb|---------------|---------------|---------------|---------------|
Gb|---------------|---------------|---------------|---------------|
Db|---------------|---------------|---------------|---------------|
Ab|-9-8-7---75-2-|-2-2-2-2-2-2-2-|-7-8-9---75-2-|-2-2-2-2-2-2-2-|
Eb|-7-6-5---53-0-|-0-0-0-0-0-0-0-|-5-6-7---53-0-|-0-0-0-0-0-0-0-|
||
| [Gtr.2 Electric w/Distortion] |
Eb|---------------|---------------|---------------|---------------|
Bb|---------------|---------------|---------------|---------------|
Gb|---------------|---------------|---------------|---------------|
Db|---------------|---------------|---------------|---------------|
Ab|---------------|---------------|---------------|---------------|
Eb|---------------|---------------|---------------|---------------|

[Solo] (cont.)
[Gtr.1 Electric w/Distortion]
Eb|---------------|---------------|---------------|---------------|
Bb|---------------|---------------|---------------|---------------|
Gb|---------------|---------------|---------------|---------------|
Db|---------------|---------------|---------------|---------------|
Ab|-9-8-7---75-2-|-2-2-2-2-2-2-2-|-7-8-9---75-2-|-2-2-2-2-2-2-2-|
Eb|-7-6-5---53-0-|-0-0-0-0-0-0-0-|-5-6-7---53-0-|-0-0-0-0-0-0-0-|
||
| [Gtr.2 Electric w/Distortion] |
Eb|---------------|---------------|---------------|---------------|
Bb|---------------|---------------|---------------|---------------|
Gb|---------------|---------------|---------------|---------------|
Db|---------------|---------------|---------------|---------------|
Ab|---------------|---------------|---------------|---------------|
Eb|---------------|---------------|---------------|---------------|

[Solo] (cont.)
[Gtr.1 Electric w/Distortion]
Eb|---------------|---------------|---------------|---------------|
Bb|---------------|---------------|---------------|---------------|
Gb|---------------|---------------|---------------|---------------|
Db|---------------|---------------|---------------|---------------|
Ab|-9-8-7---75-2-|-2-2-2-2-2-2-2-|-7-8-9---75-2-|-2-2-2-2-2-2-2-|
Eb|-7-6-5---53-0-|-0-0-0-0-0-0-0-|-5-6-7---53-0-|-0-0-0-0-0-0-0-|
||
| [Gtr.2 Electric w/Distortion] |
Eb|---------------|---------------|---------------|---------------|
Bb|---------------|---------------|---------------|---------------|
Gb|---------------|---------------|---------------|---------------|
Db|---------------|---------------|---------------|---------------|
Ab|---------------|---------------|---------------|---------------|
Eb|---------------|---------------|---------------|---------------|

[Solo] (cont.)
[Gtr.1 Electric w/Distortion]
Eb|---------------|---------------|---------------|---------------|
Bb|---------------|---------------|---------------|---------------|
Gb|---------------|---------------|---------------|---------------|
Db|---------------|---------------|---------------|---------------|
Ab|-9-8-7---75-2-|-2-2-2-2-2-2-2-|-7-8-9---75-2-|-2-2-2-2-2-2-2-|
Eb|-7-6-5---53-0-|-0-0-0-0-0-0-0-|-5-6-7---53-0-|-0-0-0-0-0-0-0-|
||
| [Gtr.2 Electric w/Distortion] |
Eb|---------------|---------------|---------------|---------------|
Bb|---------------|---------------|---------------|---------------|
Gb|---------------|---------------|---------------|---------------|
Db|---------------|---------------|---------------|---------------|
Ab|---------------|---------------|---------------|---------------|
Eb|---------------|---------------|---------------|---------------|


[Differnt PreChorus]
[Gtr.1 Electric w/Distortion]
Eb|---------------|---------------|---------------|---------------|
Bb|---------------|---------------|---------------|---------------|
Gb|---------------|---------------|---------------|---------------|
Db|---------------|---------------|---------------|---------------|
Ab|---------------|---------------|---------------|---------------|
Eb|---------------|---------------|---------------|---------------|

[Different PreChorus] (cont.)
[Gtr.1 Electric w/Distortion]
Eb|---------------|---------------|---------------|---------------|
Bb|---------------|---------------|---------------|---------------| Play
Gb|---------------|---------------|---------------|---------------| Twice
Db|---------------|---------------|---------------|---------------|
Ab|---------------|---------------|---------------|---------------|
Eb|---------------|---------------|---------------|---------------|


[Chorus 2]
[Gtr.1 Electric w/Distortion]
Eb|-------------0-|---------------|-------------0-|---------------|
Bb|-------------0-|---------------|-------------0-|---------------| Play
Gb|---------------|---------------|---------------|---------------| Twice
Db|---------------|---------------|---------------|---------------|
Ab|-7p5---5-------|---------------|-7p5---5-------|---------------|
Eb|-----7-----3---|-0-2-3-4-3-2-0-|-----7-----3---|-0-2-3-4-3-2-0-|

[Outro]
[Gtr.1 Electric w/Distortion]
Eb|---------------|---------------|---------------|---------------|
Bb|---------------|---------------|---------------|---------------|
Gb|---------------|---------------|---------------|---------------|
Db|---------------|---------------|---------------|---------------|
Ab|-7p5---5---2-2-|---------------|---------------|---------------|
Eb|-----7-----0-0-|---------------|---------------|---------------|


That's all for now...

---


Get this song at amazon.com      Ebay     Ringtones Ringtones  


Learn to play: Songwriting, Piano, Harmonica, Guitar
Also available at Muzikum: Alice In Chains - Killing Yourself lyrics

Related Alice in Chains Tabs

I Stay Away tabs
Got Me Wrong tabs
We've Become tabs
Blood Tears Little Girl Acoustic tabs
Godsmack tabs
No Excuses tabs
Leave Me Alone tabs
Bleed The Freak tabs
Nutshell tabs
Sap Album tabs
Killing Yourself tabs
I Can't Remember tabs
Heaven Beside You*intro* tabs
Angry Chair Correction tabs
All Alone tabs
It Aint Like That tabs
Sickman tabs
Foolish tabs
Brother tabs
Angry Chair Acoustic tabs


Guitar Tabs









All tabs are property and copyright of their owners. All tabs provided for educational purposes only. Privacy Policy, DMCA