Alice in Chains

I Know Somethin (Bout You) Tabs



More from Alice in Chains

Alice in Chains Tabs
Alice in Chains Chords
Alice in Chains Bass
Alice in Chains Lyrics

I Know Somethin' ('bout you) by Alice In Chains

From: Dan (aileen.arboleda@mci2000.com)

Here is the intro on guitar:

HyE-11-12-12-12-12-12-] Intro Bass:
B---11-12-12-12-12-12-]
G---11-12-12-12-12-12-]
G-------------------------------------------5---------
D---------------------]
D-----------7---5---------------------5-6-7--7-5------
A---------------------]
A-------5-3---0---0-7-6-5-3-------5-3------------7-5-3
LoE-------------------]
E-3-4-5---------------------3-4-5---------------------

Main Riff For Guitar:

HyE-------------------------------------------------------------------
B---------------------5----------------------------------5------------
G--------5-7-5--------5---------------------5-7-5--------5------------
D--------5-7-5--5-6-7---7-5-----------------5-7-5--5-6-7----7-5-------
A---------------------------7-6-5-3-----------------------------7-5-3-
LoE-3-4-5---------------------------5--3-4-5--------------------------

Main Riff on Bass

G-------------------5----------------------------------5-----------
D-------------5-6-7---7-5------------------------5-6-7---7-5-------
A-------3-5-3-------------7-6-5-3----------3-5-3-------------7-5-3-
E-3-4-5---------------------------5--3-4-5-------------------------

Verse Riff on Guitar:On the first three notes of this riff bend fret
7(G-String)
                     Up until it has the same pitch as fret 5(B-String)

HyE------------------5-5-3-3-------------------------------------]
B---5-5-5--------3-5---------5----------------------5------------]
G---7-7-7--5-------------------5--------5-7-5-------5------------]
D------------7--------------------------5-7-5-5-6-7---7-5--------]
A---------------------------------------------------------7-5-3--]
LoE-------------------------------3-4-5--------------------------]

On the Second Part of the Verse Do the same thing as the main riff:
Except you start the riff on the 5th fret.

HyE------------------------------------------------------------------]
B---------------------7----------------------------------7-----------]
G---------7-9-7-------7----------------------7-9-7-------7-----------]
D---------7-9-7-7-8-9---9-7------------------7-9-7-7-8-9---7-9-------]
A---------------------------9-8-7-5----------------------------9-7-5-]
LoE-5-6-7---------------------------7--5-6-7-------------------------]

Chorus Riff:

HyE--------------]
B---2-2-2-2-2-2--]
G---2-2-2-2-2-2--]
D---2-2-2-2-2-2--]
A---0-0-0-0-0-0--]
LoE-------------3]

Bridge Riff
                            Lead Guitar for Bridge:
HyE-3-4-5-0-0-]
B---3-4-5-0-0-] Bass:
G---4-5-6-1-1-] G-----------]
D---5-6-7-2-2-] D-----------]
A---5-6-7-2-2-] A-----------] -
HyE-3-4-5-0-0-] E-3-4-5-0-0-]


Lead Guitar for Bridge:

HyE--------------------------------------------------------------]
B----------------------------------------------------------------]
G-------------------------------------------------14(bend)-12----]
D---------------5-7-------------7-5-5-------------------------14-]
A---------5-6-7-----------5-6-7-------------5-6-7----------------]
LoE-5-6-7-----------5-6-7-------------5-6-7----------------------]

There it be. Sure it's kind of glam sounding but it still rocks.
Get this song at amazon.com      Ebay     Ringtones Ringtones  


Learn to play: Songwriting, Piano, Harmonica, Guitar
Also available at Muzikum: Alice In Chains - I Know Somethin' 'bout You lyrics

Related Alice in Chains Tabs

Godsmack tabs
Right Turn tabs
Alone tabs
Died tabs
Got Me Wrong Btab tabs
Choke tabs
Take Me Home tabs
Hate To Feel tabs
Confusion tabs
I know something tabs
I Know Somethin tabs
Would? Without Solo tabs
Angry Chair Acoustic tabs
Don't Follow tabs
A Little Bitter tabs
Them Bones Guitar Solo tabs
Nutshell Unplugged tabs
Them Bones tabs
Heaven Beside You tabs
All Alone tabs


Guitar Tabs









All tabs are property and copyright of their owners. All tabs provided for educational purposes only. Privacy Policy, DMCA