Alice in Chains

Hate To Feel Tabs



More from Alice in Chains

Alice in Chains Tabs
Alice in Chains Chords
Alice in Chains Bass
Alice in Chains Lyrics



Band: Alice in Chains

Song: Hate To Feel

Album: Dirt



I just figured this out while I was messing around and there isn't any tabs for this

so cosider this a gift, maybe a crappy gift but none-the-less a gift.



Here's the Intro, play this until the Pre-Chours...

e-------------------------------------------------|

b-------------------------------------------------|

G-------------------------------------------------|

D--5-4-3-0----------------------------------------|

A---------4-3-------------------------------------|

E-------------0-2---------------------------------|



Then you play...



e--------------------------------------------------|

b--------------------------------------------------|

G--------------------------------------------------|

D--------------------------------------------------|

A--------------------------------------------------|

E--0-0-6-0-0-6-0-0-6-0-0-6-0-0-6-0-0-6-0-0-6-0-0-6-|





That's all i have for now enjoy this for all it's worthAdded by tabs-database.com and our distinguished partners
Get this song at amazon.com      Ebay     Ringtones Ringtones  


Learn to play: Songwriting, Piano, Harmonica, Guitar
Also available at Muzikum: Alice In Chains - Hate To Feel lyrics

Related Alice in Chains Tabs

I Cant Remember tabs
Brother Acoustic tabs
Brush Away Bass tabs
Foolish tabs
Hung On A Hook tabs
Brother tabs
Confusion tabs
Greatest Hits Album tabs
Take Me Home tabs
Real Thing tabs
Social Parasite tabs
Angry Chair Correction tabs
Facelift Album tabs
I know something tabs
Sunshine tabs
No Excuses Acoustic tabs
Nutshell Acoustic tabs
Dont Follow tabs
Heaven Beside You1 tabs
Born Again tabs


Guitar Tabs









All tabs are property and copyright of their owners. All tabs provided for educational purposes only. Privacy Policy, DMCA