Alice in Chains

Got Me Wrong (unplugged) Tabs



More from Alice in Chains

Alice in Chains Tabs
Alice in Chains Chords
Alice in Chains Bass
Alice in Chains Lyrics



Got Me Wrong (unplugged) by Alice In Chains


Tabbed by Steve M. at maxmar@wire.net.au
(http://www.wire.net.au/~maxmar/index.html)

Tuning: down 1/2 step

b = bend v = vibrato
h = hammer on x = string mute


INTRO + VERSE

G# E F#
e --4--4--------0--0--0--0--2--------
B --4--4--x--x--0--0--0--0--2--x--x--
G --5--5--x--x--1--1--1--1--3--x--x--
D --6--6--x--x--2--2--2--2--4--x--x--
A --6--6--x--x--2--2--2--2--4--x--x--
E --4--4--------0--0--0--0--2--------

Riff 1 - this is the fast bit which Scott plays in the intro

e ----------|----------------------------|------------
B ----------|----------------------------|--4-4-------
G ----------|------4-6b-4-6-4------------|--4-4---6v--
D ----4-6v--|--4h6------------6-4---4-6--|------6-----
A --6-------|---------------------6------|------------
E ----------|----------------------------|------------

e --------------------
B --------------------
G --4-----------------
D ----6-4-------------
A --------6-4b-2---2--
E ---------------4----

PRE-CHORUS

D F C# A
e --------1--1--------5--5
B --7--7--1--1--6--6--5--5
G --7--7--2--2--6--6--6--6
D --7--7--3--3--6--6--7--7
A --5--5--3--3--4--4--7--7
E --5--5--1--1--4--4--5--5
As of now I bet you've got me wrong.
So unsure we reach for something_

CHORUS

E F# A
e --0--0--0-0--2--2--5--5--5--5--5--5--5--5--5--5--5--
B --0--0--0-0--2--2--5--5--5--5--5--5--5--5--5--5--5--
G --1--1--1-1--3--3--6--6--6--6--6--6--6--6--6--6--6--
D --2--2--2-2--4--4--7--7--7--7--7--7--7--7--7--7--7--
A --2--2--2-2--4--4--7--7--7--7--7--7--7--7--7--7--7--
E --0--0--0-0--2--2--5--5--5--5--5--5--5--5--5--5--5--
strong.
I haven't felt like this in so long...

F# A
e --2--2--2--2--2--2--2--2--2--|--5--5--5--5-5-5-5-5-5-5-5--5--
B --2--2--2--2--2--2--2--2--2--|--5--5--5--5-5-5-5-5-5-5-5--5--
G --3--3--3--3--3--3--3--3--3--|--6--6--6--6-6-6-6-6-6-6-6--6--
D --4--4--4--4--4--4--4--4--4--|--7--7--7--7-7-7-7-7-7-7-7--7--
A --4--4--4--4--4--4--4--4--4--|--7--7--7--7-7-7-7-7-7-7-7--7--
E --2--2--2--2--2--2--2--2--2--|--5--5--5--5-5-5-5-5-5-5-5--5--
That don't last forever...


Get this song at amazon.com      Ebay     Ringtones Ringtones  


Learn to play: Songwriting, Piano, Harmonica, Guitar
Also available at Muzikum: Alice In Chains - Got Me Wrong Unplugged lyrics

Related Alice in Chains Tabs

I Know Somethin tabs
Sludge Factory tabs
Chewbacca tabs
Get Born Again1 tabs
Foolish tabs
Whale And Wasp tabs
Them Bones Guitar Solo tabs
No Excuses tabs
Over Now (unplugged) tabs
Over Now tabs
Nutshell tabs
Lab Monkey tabs
Over Now Acoustic tabs
Alone tabs
Angry Chair tabs
Distance Aside tabs
Phantom Limb tabs
Sap Album tabs
Sludge Factory (unplugged) tabs
Would Solo tabs


Guitar Tabs









All tabs are property and copyright of their owners. All tabs provided for educational purposes only. Privacy Policy, DMCA