Alice in Chains

God Smack Bass Tabs



More from Alice in Chains

Alice in Chains Tabs
Alice in Chains Chords
Alice in Chains Bass
Alice in Chains Lyrics



Song: God Smack
Band: Alice In Chains
Album: Dirt
Tuning: Eb,Ab,Db,Gb
Tabbed by: Fabio Galdo [fsg@sercomtel.com.br] (icq 22230541)

Bass Tab Characters:
h = hammer on
p = pull of
/ = slide up
= slide down
() = let ring
= harmonic
P = pop
S = slap
x = mute

Its a great and easy song, fun to play around, but you have to listen to the cd, so you can
get the timing and when the riffs changes.
Use your fingers to get a better sound.


Intro/Verse/Guitar Solo

**intro comes on 3rd measure**

Gb|[-----------------------------------]|
Db|[-*-------------------------------*-]|
Ab|[-*-1-1-1-----------------------2-*-]|
Eb|[--------2-2-2-2-0--0-1-1-1-2-2-----]|

Pre-Chorus
(told you no one is blind)

Gb|[----------------------------------]|
Db|[----------------------------------]|
Ab|[----------------------------------]|
Eb|[--2-2-2-2---0-0-0-0-0-0-0-0-0-----]|

Fill
(what you hide)

Gb|[----------------------------------]|
Db|[----------------------------------]|
Ab|[----------------------------------]|
Eb|[--2-3----3----5-5-5-5-------------]|

Chorus
* you can hammer the E on the A string, 7th fret. (5h7)
Gb|[----------------------------------]|
Db|[*--------------------------------*]|
Ab|[*--5-5-5--5-5-5-7----------------*]|
Eb|[----------------------------------]|

The End
* when you hit the E on the end of last chorus, slide it down.
Gb|[----------------------------------]|
Db|[----------------------------------]|
Ab|[---7-----------------------------]|
Eb|[----------------------------------]|

That is it, may not be 100% accurate, but its my best shot. Questions, corrections, ultra-expensive
gifts? Send to fsg@sercomtel.com.br - icq# 22230541

Taken from The BassMasta -- http://www.tabs-database.com



Get this song at amazon.com      Ebay     Ringtones Ringtones  


Learn to play: Songwriting, Piano, Harmonica, Guitar
Also available at Muzikum: Alice In Chains - God Smack lyrics

Related Alice in Chains Bass Tabs

Again bass
Rotten Apple bass
Nutshell unplugged versions bass
I Cant Remember bass
Dont Follow bass
Put You Down bass
Song bass
Sludge Factory bass
Frogs bass
Roooster bass
Sickman bass
Junkhead bass
Nutshell Mtv Unplugged bass
Angry Chair bass
Rooster (detailed) bass
Grind bass
Angry Chair (right Intro) bass
Swing on this bass
Man In The Box bass
Soical Parasite bass


Guitar Tabs









All tabs are property and copyright of their owners. All tabs provided for educational purposes only. Privacy Policy, DMCA