Alice in Chains

Facelift Tabs



More from Alice in Chains

Alice in Chains Tabs
Alice in Chains Chords
Alice in Chains Bass
Alice in Chains Lyrics

Band- Alice In Chains
Album- Facelift
1.WE DIE YOUNG
Tune down 1/2 step (dropped "D" tuning).
Rhythm Figure 1:
===============
PM--| PM--| PM
1/2 (bend)
1|-----------------/-------------|------------------------------------------|
2|----------------/--------------|-----6-----------6-------6---8------------|
3|---------------/----------5-----|-----5-----------5-------5---7------------|
4|--2---0---0---6-------0---3---0-|-0---3---0---0---3---0---3---5------------|
5|--2---0---0---6-------0---3---0-|-0---3---0---0---3---0---3---5------------|
6|--2---0---0---6-------0---3---0-|-0---3---0---0---3---0---3---5------------|
PM--| PM
1/2 (bend) 1/2 (bend)
1|-----------------/--------------|-------------------/----------------------|
2|----------------/---------------|-----6------------/-----------------------|
3|---------------/----------5-----|-----5-------7---7-------7---5------------|
4|--2---0---0---6-------0---3---0-|-0---3---0---5---5-------5---3---0--------|
5|--2---0---0---6-------0---3---0-|-0---3---0---5---5-------5---3---0--------|
6|--2---0---0---6-------0---3---0-|-0---3---0---5---5-------5---3---0--------|
1st Verse with Figure 1
Scary's on the wall
w/Figure 1 (1st three bars only)
Scary's on his way
Rhythym Figure 1A:
=================
PM-| PM
1|-----------------------------|
2|-----------------------------|
3|------5----------5------7----|
4|--0---3---0--0---3--0---5--0-|
5|--0---3---0--0---3--0---5--0-|
6|--0---3---0--0---3--0---5--0-|
Rhythym Figure 2:
================
Oo, watch where you spit. I'd advise you wait
PM PM-| PM PM-| PM sl PM PM-| PM
1|-----------------------|---------------------|-----------------------|
2|14-----6-------6-----6-|------6----8-6-------|14-----6-------6-----6-|
3|13-----5-------5-----5-|------5----7-5-------|13-----5-------5-----5-|
4|11--0--3--0--0-3--0--3-|-0-0--3-0--5-3----0/-|11--0--3--0--0-3--0--3-|
5|11--0--3--0--0-3--0--3-|-0-0--3-0--5-3----0/-|11--0--3--0--0-3--0--3-|
6|11--0--3--0--0-3--0--3-|-0-0--3-0--5-3----0/-|11--0--3--0--0-3--0--3-|
until it's over.
PM-| PM PM-| PM
1/2 (bend)
1|-----------------/----------------|-----------------------|
2|----------------/-----------------|14-----6-------6-----6-|
3|-------5---7---7-------7---5------|13-----5-------5-----5-|
4|-0--0--3---5---5-------5---3---0--|11--0--3--0--0-3--0--3-|
5|-0--0--3---5---5-------5---3---0--|11--0--3--0--0-3--0--3-|
6|-0--0--3---5---5-------5---3---0--|11--0--3--0--0-3--0--3-|
Uh, then you got hit, and you shoulda known better.
PM-| PM sl PM PM-| PM PM-| PM
1|----------------------|-----------------------|----------------------|
2|------6----8--6-------|14-----6-------6-----6-|------6----6--8-------|
3|------5----7--5-------|13-----5-------5-----5-|------5----5--7-------|
4|0--0--3-0--5--3----0/-|11--0--3--0--0-3--0--3-|0--0--3-0--3--5-------|
5|0--0--3-0--5--3----0/-|11--0--3--0--0-3--0--3-|0--0--3-0--3--5-------|
6|0--0--3-0--5--3----0/-|11--0--3--0--0-3--0--3-|0--0--3-0--3--5-------|
Chorus w/Figure 1:
And we die young.
Faster we run. (Fill with Figure 1A)
Second verse w/Figure 2:
Down, down, down you're rollin'.
Watch the blood float in the muddy sewer.
Uh, take another hit and bury your brother.
H Series of hammer/pulls 1/2 (bend) sl ~~~~
1|----------------------------------|------------/----------|----------|
2|----------------------------------|-----------/-----------|----------|
3|----------------------------------|----5--7--7----7--5----|-5/7---5--|
4|----------------------------------|-0--3--5--5----5--3--0-|----------|
5|-3/5---3/5-3/5-3/5-3/5-3/5--3-----|-0--3--5--5----5--3--0-|----------|
6|----------------------------------|-0--3--5--5----5--3--0-|----------|
And we die young.
1/2 (bend)
1|------------/----------|----------|------|
2|-----------/-----------|-6------8-|-(8)--|
3|----5--7--7----7--5----|-5------7-|-(7)--|
4|-0--3--5--5----5--3--0-|-3---0--5-|-(5)--|
5|-0--3--5--5----5--3--0-|-3---0--5-|-(5)--|
6|-0--3--5--5----5--3--0-|-3---0--5-|-(5)--|
H Series of hammer/pulls 1/2 (bend) sl ~~~~
1|----------------------------------|------------/----------|----------|
2|----------------------------------|-----------/-----------|----------|
3|----------------------------------|----5--7--7----7--5----|-5/7---5--|
4|----------------------------------|-0--3--5--5----5--3--0-|----------|
5|-3/5---3/5-3/5-3/5-3/5-3/5--3-----|-0--3--5--5----5--3--0-|----------|
6|----------------------------------|-0--3--5--5----5--3--0-|----------|
Faster we run.
1/2 (bend)
1|------------/----------|----------|------|
2|-----------/-----------|-6------8-|-(8)--|
3|----5--7--7----7--5----|-5------7-|-(7)--|
4|-0--3--5--5----5--3--0-|-3---0--5-|-(5)--|
5|-0--3--5--5----5--3--0-|-3---0--5-|-(5)--|
6|-0--3--5--5----5--3--0-|-3---0--5-|-(5)--|
Solo with Figure 1 (2 times).
Third verse (with Figure 1):
Scary's on the wall.
Third verse (with Figure 1 1st 3 bars):
Scary's on his way.
Fourth verse (with Figure 2):
Another alley trip.
Bullet seek the place to bend you over.
Uh, then you got hit, and you shoulda known better.
Repeat chorus
Ending:
======
PM--| PM-| PM
1/2 (bend)
1|-----------------/------------|---------------------------|
2|----------------/-------------|-----6----------6-----6--8-|
3|---------------/----------5----|-----5----------5-----5--7-|
4|--2---0---0---6-------0---3--0-|-0---3---0--0---3--0--3--5-|
5|--2---0---0---6-------0---3--0-|-0---3---0--0---3--0--3--5-|
6|--2---0---0---6-------0---3--0-|-0---3---0--0---3--0--3--5-|
1/2 (bend)
1|-----------------/---------|
2|----------------/----------|
3|---------------/----------5-|
4|--2---0---0---6-------0---3-|
5|--2---0---0---6-------0---3-|
6|--2---0---0---6-------0---3-|
2.MAN IN THE BOX
Intro - Play 2x
---------------
eb|---------------------------|---------------------------|
Bb|---------------------------|---------------------------|
Gb|---------------------------|---------------------------|
Db|---------------------------|---------------------------|
Ab|---5----X----5----5--------|---5----X----5----5--------|
Eb|---0----X----0----0----0---|---0----X----0----0----0---|
eb|---------------------------|---------------------------|
Bb|---------------------------|---------------------------|
Gb|---------------------------|---------------------------|
Db|---------------------------|---------------------------|
Ab|---5----X----5----5--------|---5----X----5-----------5-|
Eb|---0----X----0----0----0---|---0----X----0---0h5h7-----|
w/ Talk Box - Play 2x
---------------------
Ah_____ Ah___ Ah___ etc. etc.
eb|---------------------------|---------------------------|
Bb|---------------------------|---------------------------|
Gb|----------7~~~~---9~~~~----|---------------------------|
Db|---9~~~~-------------------|---7~~~~--9~~~~---5~~~~~---|
Ab|---------------------------|---------------------------|
Eb|---------------------------|---------------------------|
eb|---------------------------|---------------------------|
Bb|---------------------------|---------------------------|
Gb|----------5~~~~------------|---------------------------|
Db|---7~~~~-------------------|---------------------------|
Ab|------------------7~~~~----|-----7~~------------5------|
Eb|---------------------------|-------------0h5h7---------|
Verse w/ Talk Box
-----------------
I'm______________ the man____________ in the box.
eb|---------------------------|---------------------------|
Bb|---------------------------|---------------------------|
Gb|---------------------------|---------------------------|
Db|---------------------------|---------------------------|
Ab|---5----X----5----5--------|---5----X----5----5--------|
Eb|---0----X----0----0----0---|---0----X----0----0----0---|
eb|---------------------------|---------------------------|
Bb|---------------------------|---------------------------|
Gb|---------------------------|---------------------------|
Db|---------------------------|---------------------------|
Ab|---5----X----5----5--------|---5----X----5-----------5-|
Eb|---0----X----0----0----0---|---0----X----0---0h5h7-----|
Buried__________ in_________________ my ***.
eb|---------------------------|---------------------------|
Bb|---------------------------|---------------------------|
Gb|---------------------------|---------------------------|
Db|---------------------------|---------------------------|
Ab|---5----X----5----5--------|---5----X----5----5--------|
Eb|---0----X----0----0----0---|---0----X----0----0----0---|
eb|---------------------------|---------------------------|
Bb|---------------------------|---------------------------|
Gb|---------------------------|---------------------------|
Db|---------------------------|---------------------------|
Ab|---5----X----5----5--------|--------5------5---7~~~~---|
Eb|---0----X----0----0----0---|----0------0---------------|
Pre-Chorus, Talk Box Off
------------------------
Won't___________________ you______________________
eb|---------------------------|---------------------------|
Bb|---------------------------|---------------------------|
Gb|---------------------------|---------------------------|
Db|---------------------------|---------------------------|
Ab|--5--5--7--5--5--7--5--5---|--5--5--7--5--5--7--5--5---|
Eb|--3--3--3--3--3--3--3--3---|--3--3--3--3--3--3--3--3---|
PM................................................
come____________________ and______________ save me?
eb|---------------------------|---------------------------|
Bb|---------------------------|---------------------------|
Gb|---------------------------|---------------------------|
Db|---------------------------|---------------------------|
Ab|--5--5--7--5--5--7--5--5---|--5--5--7--5--5--5--7--5---|
Eb|--3--3--3--3--3--3--3--3---|--3--3--3--3--3--3--3--3---|
PM................................................
Talk Box On
Save___
eb|---------------------------|---------------------------|
Bb|---------------------------|---------------------------|
Gb|---------------------------|---------------------------|
Db|---------------------------|---------------------------|
Ab|---5---------5----5~~------|---5----X----5----5--------|
Eb|--------0--------------0---|---0----X----0----0----0---|
me______.
(Fill 1)
eb|---------------------------|---------------------------|
Bb|---------------------------|---------------------------|
Gb|---------------------------|---------------------------|
Db|---------------------------|---------------------------|
Ab|---5----X----5----5--------|---5h7---5-----------------|
Eb|---0----X----0----0----0---|--------------7--6--5--3---|
(FIll 2)
eb|--------------------------------------------|
Bb|-14^Half-14-14^Half-14--12------------------|
Gb|-14^Half-14-14^Half-14--12----------|
Db|----------------------------14-12---|
Ab|------------------------------------|
Eb|------------------------------------|
Chorus, Talk Box Off - Play 4x
------------------------------
(Let Ring)
Feed______________________________________ my eyes__
eb|----------------------3----|---------------------2-----|
Bb|----------------------3----|---------------------3-----|
Gb|----------------------0----|---------------------2-----|
Db|---2------------------0----|---------------------0-----|
Ab|---2-----------------------|---------------------0-----|
Eb|---0------------------3----|---------------------------|
(Can___ you_____ sew them______ shut?___)
eb|---------------------------|---------------------------|
Bb|---------------------------|---------------------------|
Gb|---2-----------------------|---------------------------|
Db|---2-----------------------|---------------------------|
Ab|---0-----------------------|---------------------------|
Eb|---------------------------|-------------0---3^(1/4)---|
SOLO w/ Wah Wah Pedal
---------------------
eb|-------------------------------------------------------|
Bb|-------------------------------------------------------|
Gb|-------------------------------------------------------|
Db|--2p0h2p0h2p0h2p0h2p0h2p0h2p0h2p0h2p0h2p0h2p0h2p0h2p0--|
Ab|-------------------------------------------------------|
Eb|-------------------------------------------------------|
eb|-------------------------------------------------------|
Bb|-------------------------------------------------------|
Gb|-------------------------------------------------------|
Db|--2p0h2p0h2p0h2p0h2p0h2p0h2p0h2p0h2p0h2p0h2p0h2p0h2p0--|
Ab|-------------------------------------------------------|
Eb|-------------------------------------------------------|
eb|-------------------------------------------------------|
Bb|-------------------------------------------------------|
Gb|---------7h9--9^Full---9--7----------------------------|
Db|----7h9-----------------------9--8--7------7--7^Full---|
Ab|---------------------------------------10--------------|
Eb|-------------------------------------------------------|
Hold Bend....................................
eb|-------------------------------------------------------|
Bb|-------------------------------------------------------|
Gb|--14^Full--14-14-14-14-14-14-14-14-14-14-14-14(1/2)----|
Db|-------------------------------------------------------|
Ab|-------------------------------------------------------|
Eb|-------------------------------------------------------|
...........
eb|-------------------------------------------------------|
Bb|----------------------------------12h15p12h15p12h15----|
Gb|-14-14-14-14-14^Full-14p12-----------------------------|
Db|---------------------------14~~~~----------------------|
Ab|-------------------------------------------------------|
Eb|-------------------------------------------------------|
eb|--12-12-15^Half-15-12----------------------------------|
Bb|-------------------------------------------------------|
Gb|----------------------12--14~~~~-----------------------|
Db|--------------------------------------------5----------|
Ab|--------------------------------------X-X-------7------|
Eb|-----------------------------------3--X-X--------------|
eb|-------------------------------------------------------|
Bb|---------------------------------12--------------------|
Gb|--------12--14^Full--12--------------15-14-12-14^Full--|
Db|--12h14-----------------14--12~~-----------------------|
Ab|-------------------------------------------------------|
Eb|-------------------------------------------------------|
eb|--------------------------------15h17^Half-17-15-------|
Bb|--------------------------15h17------------------15~~~-|
Gb|-14^Full--12-----15~~~~--------------------------------|
Db|-------------14----------------------------------------|
Ab|-------------------------------------------------------|
Eb|-------------------------------------------------------|
eb|----X--X--------X--------------------------------------|
Bb|-5--X--X--5--5--X--4--4--------------------------------|
Gb|-4--X--X--4--4--X--4--4--------------------------------|
Db|-2--X--X--2--2--X--2--2----------2~~---X-X-X-X------0--|
Ab|-------------------3--3----------------X-X-X-X--0h2----|
Eb|--------------------------3^Half-------X-X-X-X---------|
eb|-------------------------------|
Bb|-------------------------------|
Gb|-------------------------------|
Db|--5--2-----2---------2---------| END SOLO
Ab|--------5-----5----------------|
Eb|------------------3-----3------|
3.SEA OF SORROW
G5
||-3---------------------------------------------------------------------|
||-3---------------------------------------------------------------------|
||-0---------------------------------------------------------------------|
||-0---------------------------------------------------------------------|
||-2---------------------------------------------------------------------|
||-3---------------------------------------------------------------------|
" Mind of destructive taste,I choose to stroll among the waste still was..
F C5 (Bb) G5 (F) G5
-1-----------------------------------3--------------3----|
-1----------------------5------------3--------------3----|
-2----------------------5------------0--------------0----|
-3----------------------5---------0--0-----------3/-0----|
-3----------------------3---------5/-2-----------3/-2----|
-1--------------------------------6/-3-----------1/-3----|
...your heart lost in the dark,call off the chase......"
Now repeat this part for the 2nd verse with the words
"...walls of thought strong and high....".
After this there's the Pre-Chorus:
F C5 G5
You opened fire....and your mark was true
F C5 G5
you opened fire....aim my smiling skull at you
F C5 A(play it like in figure.1)
you opened fire........
Figure.1:
||-------------------------|
||-------------------------|
||-------------------------|(X2)
||-7-----------------------|
||-7-7--9-7-9-7-7----------|
||-5-5--5-5-5-5-5----------|
The chorus is played with these chords:
G A E
I live tomorrow.....
G A E
You are not follow....
G A E
As you wallow.......
G A E
In a sea of sorrow......
4.BLEED THE FREAK
Tempo = 120
Time Sig = 4/4
Intro
e:--------------------------|--------------------------|
B:--------------------------|--------------------------|
G:--------4--------4-----4--|-----------4--------4-----|
D:-----4--------4-----------|--------4-----4--------4--|
A:--2-----------------0-----|-----2-----------2--------|
E:-----------3--------------|--0-----------------------|
e:--------------------------|-------------------------|
B:--------------------------|-------------------------|
G:--------4--------4-----4--|----------------4-----4--|
D:-----4--------4-----------|-------------------4-----|
A:--2-----------------0-----|--0----------2-----------|
E:-----------3--------------|-----3--0----------------|
| | |
e:--------------------------|-------------------------|
B:--------------------------|-------------------------|
G:--------4--------4--2--4--|-2--0----------4---------|
D:-----4--------4-----------|-------2----------4------|
A:--2-----------------------|------------2--------2---|
E:-----------3--------------|-------------------------|
e:--------------------------|--------------------------|
B:--------------------------|--------------------------|
G:--------4--------4-----4--|-----------4--------4-----|
D:-----4--------4-----------|--------4-----4--------4--|
A:--2-----------------0-----|-----2-----------2--------|
E:-----------3--------------|--0-----------------------|
| | |
e:--------------------------|--------------------------|
B:--------------------------|--------------------------|
G:--------4--------4-----4--|-----------4--------4-----|
D:-----4--------4-----------|--------4-----4--------4--|
A:--2-----------------0-----|-----2-----------2--------|
E:-----------3--------------|--0-----------------------|
e:--------------------------|-------------------------|
B:--------------------------|-------------------------|
G:--------4--------4-----4--|----------------4--------|
D:-----4--------4-----------|-------------------4-----|
A:--2-----------------0-----|--0----------2--------2--|
E:-----------3--------------|-----3--0----------------|
| | |
e:--------------------------|-------------------------|
B:--------------------------|-------------------------|
G:--------4--------4--2--4--|--2--0----------4--------|
D:-----4--------4-----------|--------2----------4-----|
A:--2-----------------------|-------------2--------2--|
E:-----------3--------------|-------------------------|
My cup run-neth o -
e:--------------------------|--------------------------|
B:--------------------------|--------------------------|
G:--------4--------4-----4--|-----------4--------4-----|
D:-----4--------4-----------|--------2-----4--------4--|
A:--2-----------------0-----|-----2-----------2--------|
E:-----------3--------------|--0-----------------------|
ver
e:--------------------------|-------------------------|
B:--------------------------|-------------------------|
G:--------4--------4-----4--|-------------------4-----|
D:-----4--------4-----------|----------------4-----4--|
A:--2-----------------0-----|--0----------2-----------|
E:-----------3--------------|-----3--0----------------|
Like blood from a stone
e:--------------------------|--------------------------|
B:--------------------------|--------------------------|
G:--------4--------4-----4--|-----------4--------4-----|
D:-----4--------4-----------|--------4-----4--------4--|
A:--2-----------------0-----|-----2-----------2--------|
E:-----------3--------------|--0-----------------------|
e:--------------------------|------------------------|
B:--------------------------|------------------------|
G:--------4--------4-----4--|------------------------|
D:-----4--------4-----------|------------------------|
A:--2-----------------0-----|--0---------------------|
E:-----------3--------------|-----3--0---------------|
Chorus
These stand for me
e:---------------------------|---------------------------|
B:---------------------------|---------------------------|
G:--4-------------2---2------|---------------------------|
D:--4------5------2---2---2--|----(2)--------------------|
A:--2------5------0---0---2--|----(2)--------------------|
E:---------3--------------0--|----(0)--------------------|
Name your god and bleed the freak
e:-----------------------|-------------------------|
B:-----------------------|-------------------------|
G:--4-------------2---2--|-------------------------|
D:--4------5------2---2--|------2------------------|
A:--2------5------0---0--|------2------------------|
E:---------3-------------|--3---0------------------|
I like to see
e:---------------------------|--------------------------|
B:---------------------------|--------------------------|
G:--4-------------2---2------|--------------------------|
D:--4------5------2---2---2--|--------------------------|
A:--2------5------0---0---2--|--------------------------|
E:---------3--------------0--|--------------------------|
how you all would bleed for me
e:-----------------------|-------------------------|
B:-----------------------|-------------------------|
G:--4-------------2---2--|-------------------------|
D:--4------5------2---2--|------2------------------|
A:--2------5------0---0--|------2------------------|
E:---------3-------------|--3---0------------------|
When the pig
e:---------------------------||-----------------------------------------|
B:---------------------------||-----------------------------------------|
G:---------------------------||*----------------------------------------|
D:------------------------3/-||*--4---3/---4--------------------------|
A:------------------------1/-||---2---1/---2---3/---4---3----3----3--|
E:---------------------------||------------------1/---2---1----1----1--|
runs slower
e:----------------------------------------|
B:----------------------------------------|
G:----------------------------------------|
D:-------------------------------------3/-|
A:--3----3----3----3----3----3----3----1/-|
E:--1----1----1----1----1----1----1-------|
let the
e:----------------------------------------|
B:----------------------------------------|
G:----------------------------------------|
D:--4---3/---4---------------------------|
A:--2---1/---2----3/---4---3----3----3--|
E:-----------------1/---2---1----1----1--|
arrow fly
e:----------------------------------------|
B:----------------------------------------|
G:----------------------------------------|
D:-------------------------------------3/-|
A:--3----3----3----3----3----3----3----1/-|
E:--1----1----1----1----1----1----1-------|
When the sin
e:----------------------------------------|
B:----------------------------------------|
G:----------------------------------------|
D:--4---3/---4---------------------------|
A:--2---1/---2----3/---4---3----3----3--|
E:-----------------1/---2---1----1----1--|
lies boulder
e:----------------------------------------|
B:----------------------------------------|
G:----------------------------------------|
D:-------------------------------------3/-|
A:--3----3----3----3----3----3----3----1/-|
E:--1----1----1----1----1----1----1-------|
I'll pluck out thine eye
e:----------------------------------------|-------------------------------|
B:----------------------------------------|-------------------------------|
G:----------------------------------------|-------------------------------|
D:--4---3/---4---------------------------|-----------------------7-------|
A:--2---1/---2----3/---4---3----3----3--|--3----3----3----3-----5----7--|
E:-----------------1/---2---1----1----1--|--1----1----1----1----------5--|
These stand for me
e:---------------------------|--------------------------|
B:---------------------------|--------------------------|
G:--4-------------2---2------|--------------------------|
D:--4------5------2---2---2--|--------------------------|
A:--2------5------0---0---2--|--------------------------|
E:---------3--------------0--|--------------------------|
Name your god and bleed the freak
e:-----------------------|-----------------------|
B:-----------------------|-----------------------|
G:--4-------------2---2--|-----------------------|
D:--4------5------2---2--|------2----------------|
A:--2------5------0---0--|------2----------------|
E:---------3-------------|--3---0----------------|
I like to see
e:---------------------------|--------------------------|
B:---------------------------|--------------------------|
G:--4-------------2---2------|--------------------------|
D:--4------5------2---2---2--|--------------------------|
A:--2------5------0---0---2--|--------------------------|
E:---------3--------------0--|--------------------------|
How you all would bleed for me
e:-----------------------|------------------------||------------------------|
B:-----------------------|------------------------||------------------------|
G:--4--------------------|---------------------3-*||--2---------------------|
D:--4------5------2---2--|------2--------------3-*||--2-------2-------------|
A:--2------5------0---0--|------2--------------1--||--0-------2-------------|
E:---------3-------------|--3---0-----------------||------3---0-------------|
If you scorn
e:-----------------------------------------|
B:-----------------------------------------|
G:*----------------------------------------|
D:*--4---3/---4--------------------------|
A:---2---1/---2---3/---4---3----3----3--|
E:------------------1/---2---1----1----1--|
my lo - ver
e:----------------------------------------|
B:----------------------------------------|
G:----------------------------------------|
D:-------------------------------------3/-|
A:--3----3----3----3----3----3----3----1/-|
E:--1----1----1----1----1----1----1-------|
satan got
e:----------------------------------------|
B:----------------------------------------|
G:----------------------------------------|
D:--4---3/---4---------------------------|
A:--2---1/---2----3/---4---3----3----3--|
E:-----------------1/---2---1----1----1--|
your thigh
e:----------------------------------------|
B:----------------------------------------|
G:----------------------------------------|
D:-------------------------------------3/-|
A:--3----3----3----3----3----3----3----1/-|
E:--1----1----1----1----1----1----1-------|
If you steal
e:----------------------------------------|
B:----------------------------------------|
G:----------------------------------------|
D:--4---3/---4---------------------------|
A:--2---1/---2----3/---4---3----3----3--|
E:-----------------1/---2---1----1----1--|
in hunger
e:----------------------------------------|
B:----------------------------------------|
G:----------------------------------------|
D:-------------------------------------3/-|
A:--3----3----3----3----3----3----3----1/-|
E:--1----1----1----1----1----1----1-------|
I will kick you when you try
e:----------------------------------------|-------------------------------|
B:----------------------------------------|-------------------------------|
G:----------------------------------------|-------------------------------|
D:--4---3/---4---------------------------|-----------------------7-------|
A:--2---1/---2----3/---4---3----3----3--|--3----3----3----3-----5----7--|
E:-----------------1/---2---1----1----1--|--1----1----1----1----------5--|
These stand for me
e:---------------------------|--------------------------|
B:---------------------------|--------------------------|
G:--4-------------2---2------|--------------------------|
D:--4------5------2---2---2--|--------------------------|
A:--2------5------0---0---2--|--------------------------|
E:---------3--------------0--|--------------------------|
Name your god and bleed the freak
e:-----------------------|-----------------------|
B:-----------------------|-----------------------|
G:--4-------------2---2--|-----------------------|
D:--4------5------2---2--|------2----------------|
A:--2------5------0---0--|------2----------------|
E:---------3-------------|--3---0----------------|
I like to see
e:---------------------------|--------------------------|
B:---------------------------|--------------------------|
G:--4-------------2---2------|--------------------------|
D:--4------5------2---2---2--|--------------------------|
A:--2------5------0---0---2--|--------------------------|
E:---------3--------------0--|--------------------------|
How you all would bleed for me
e:-----------------------|------------------------|
B:-----------------------|------------------------|
G:--4--------------------|--2---------------------|
D:--4------5------2---2--|--2-------2-------------|
A:--2------5------0---0--|--0-------2-------------|
E:---------3-------------|------3---0-------------|
Guitar Solo
e:----------------------------|-------------------------------|
B:----------------------------|-------------------------------|
G:----------------------------|-------------------------------|
D:--6------2---2---4---4------|-------------------------------|
A:--4------0---0---2---2---4--|--(4)--------------------------|
E:-------------------------2--|--(2)--------------------------|
e:------------------------|------------------------|
B:------------------------|------------------------|
G:------------------------|------------------------|
D:--6------2---2---4---4--|--4---2-----------------|
A:--4------0---0---2---2--|--2---0---4-------------|
E:------------------------|----------2-------------|
e:----------------------------|-----------------------------|
B:----------------------------|-----------------------------|
G:----------------------------|-----------------------------|
D:--6------2---2---4---4------|-----------------------------|
A:--4------0---0---2---2---4--|--(2)------------------------|
E:-------------------------2--|--(4)------------------------|
e:------------------------|------------------------|
B:------------------------|------------------------|
G:------------------------|------------------------|
D:--6------2---2---4---4--|--4---2-----------------|
A:--4------0---0---2---2--|--2---0---4------(4)----|
E:------------------------|----------2------(2)----|
Volume swell this note
e:-------------------------|-----------------------|
B:-------------------------|-----------------------|
G:-----------------9-------|-----------------------|
D:-------------------------|-----------------------|
A:-------------------------|-----------------------|
E:-------------------------|-----------------------|
e:--------------------------|--------------------------|
B:--------------------------|--------------------------|
G:--------4--------4-----4--|-----------4--------4-----|
D:-----4--------4-----------|--------4-----4--------4--|
A:--2-----------------0-----|-----2-----------2--------|
E:-----------3--------------|--0-----------------------|
e:--------------------------|-------------------------|
B:--------------------------|-------------------------|
G:--------4--------4-----4--|----------------4--------|
D:-----4--------4-----------|-------------------4-----|
A:--2-----------------0-----|--0----------2--------2--|
E:-----------3--------------|-----3--0----------------|
e:--------------------------|--------------------------|
B:--------------------------|--------------------------|
G:--------4--------4-----4--|-----------4--------4-----|
D:-----4--------4-----------|--------4-----4--------4--|
A:--2-----------------0-----|-----2-----------2--------|
E:-----------3--------------|--0-----------------------|
e:--------------------------|-------------------------|
B:--------------------------|-------------------------|
G:--------4--------4-----4--|----------------4--------|
D:-----4--------4-----------|-------------------4-----|
A:--2-----------------0-----|--0----------2--------2--|
E:-----------3--------------|-----3--0----------------|
e:--------------------------|--------------------------|
B:--------------------------|--------------------------|
G:--------4--------4-----4--|-----------4--------4-----|
D:-----4--------4-----------|--------4-----4--------4--|
A:--2-----------------0-----|-----2-----------2--------|
E:-----------3--------------|--0-----------------------|
e:--------------------------|-------------------------|
B:--------------------------|-------------------------|
G:--------4--------4-----4--|----------------4--------|
D:-----4--------4-----------|-------------------4-----|
A:--2-----------------0-----|--0----------2--------2--|
E:-----------3--------------|-----3--0----------------|
e:--------------------------|--------------------------|
B:--------------------------|--------------------------|
G:--------4--------4-----4--|-----------4--------4-----|
D:-----4--------4-----------|--------4-----4--------4--|
A:--2-----------------0-----|-----2-----------2--------|
E:-----------3--------------|--0-----------------------|
e:--------------------------|-------------------------|
B:--------------------------|-------------------------|
G:--------4--------4-----4--|----------------4--------|
D:-----4--------4-----------|-------------------4-----|
A:--2-----------------0-----|--0----------2--------2--|
E:-----------3--------------|-----3--0----------------|
e:--------------------------|--------------------------|
B:--------------------------|--------------------------|
G:--------4--------4-----4--|-----------4--------4-----|
D:-----4--------4-----------|--------4-----4--------4--|
A:--2-----------------0-----|-----2-----------2--------|
E:-----------3--------------|--0-----------------------|
Bleed for
e:--------------------------|-------------------------|
B:--------------------------|-------------------------|
G:--------4--------4-----4--|----------------4--------|
D:-----4--------4-----------|-------------------4-----|
A:--2-----------------0-----|--0----------2--------2--|
E:-----------3--------------|-----3--0----------------|
me Bleed for me
e:--------------------------|--------------------------|
B:--------------------------|--------------------------|
G:--------4--------4-----4--|-----------4--------4-----|
D:-----4--------4-----------|--------4-----4--------4--|
A:--2-----------------0-----|-----2-----------2--------|
E:-----------3--------------|--0-----------------------|
(Ah________)
e:--------------------------|-------------------------|
B:--------------------------|-------------------------|
G:--------4--------4-----4--|-------------------------|
D:-----4--------4-----------|-------------------------|
A:--2-----------------0-----|--0----------2--2--2--2--|
E:-----------3--------------|-----3--0----0--0--0--0--|
These stand for me
e:---------------------------|--------------------------|
B:---------------------------|--------------------------|
G:--4-------------2---2------|--------------------------|
D:--4------5------2---2---2--|--------------------------|
A:--2------5------0---0---2--|--------------------------|
E:---------3--------------0--|--------------------------|
Name your god and bleed the freak
e:-----------------------|-----------------------|
B:-----------------------|-----------------------|
G:--4-------------2---2--|-----------------------|
D:--4------5------2---2--|------2----------------|
A:--2------5------0---0--|------2----------------|
E:---------3-------------|--3---0----------------|
I like to see
e:---------------------------|--------------------------|
B:---------------------------|--------------------------|
G:--4-------------2---2------|--------------------------|
D:--4------5------2---2---2--|--------------------------|
A:--2------5------0---0---2--|--------------------------|
E:---------3--------------0--|--------------------------|
How you all would bleed for me
e:-----------------------|------------------------|
B:-----------------------|------------------------|
G:--4--------------------|--2---------------------|
D:--4------5------2---2--|--2-------2-------------|
A:--2------5------0---0--|--0-------2-------------|
E:---------3-------------|------3---0-------------|
These stand for me
e:---------------------------|------------------------|
B:---------------------------|------------------------|
G:--4-------------2---2------|------------------------|
D:--4------5------2---2---2--|------------------------|
A:--2------5------0---0---2--|------------------------|
E:---------3--------------0--|------------------------|
Name your god and blead the freak
e:-----------------------|-----------------------|
B:-----------------------|-----------------------|
G:--4-------------2---2--|-----------------------|
D:--4------5------2---2--|------2----------------|
A:--2------5------0---0--|------2----------------|
E:---------3-------------|--3---0----------------|
I like to see
e:---------------------------|-------------------------|
B:---------------------------|-------------------------|
G:--4------------------------|-------------------------|
D:--4------5------2---2---2--|-------------------------|
A:--2------5------0---0---2--|-------------------------|
E:---------3--------------0--|-------------------------|
how you all would bleed for me
e:-----------------------|-----------------------------|
B:-----------------------|-----------------------------|
G:--4--------------------|-----------------------------|
D:--4------5------2---2--|------2----------------------|
A:--2------5------0---0--|------2----------------------|
E:---------3-------------|--3---0----------------------|
5.I CAN'T REMEMBER
"I Can't Remember" (riff 1)
Eb-------0----0----0----0----0------0----0----0----0----0------------------|
Bb-----0----0--0----0----0----0---0----0--0----0----0----0-----------------|
Gb---4----3-----3----3----3------4----2-----0----2----2--------------------|
Db------------------------------------------------------------------(2)----|
Ab------------------------------------------------------------------(2)----|
Eb------------------------------------------------------------------(0)----|
(riff 2)
Eb--------------------------------------------------------------------------|
Bb--------------------------------------------------------------------------|
Gb--------------------------------------------------------------------------|
Db-----------------5^----------------------------7^----5--------------------|
Ab---5---7-------------7-----------5---7------------------------------------|
Eb------------0------------0---0------------0---------------0---0-----------|
Eb--------------------------------------------------------------------------|
Bb--------------------------------------------------------------------------|
Gb------------------------------------------------------------2-------------|
Db--------------5^---------------------------8---7----------2---------------|
Ab---5---7---------7-----------5---7-------8---7----------0-----------------|
Eb-----------0--------0---0-----------0----6---5----3^----------------------|
(riff 3)
Eb----------------------------------------------------------------------------|
Bb----------------------------------------------------------------------------|
Gb----------------------------0------------------------------------0----------|
Db---------2--------0-----0--------------------2--------0-----0---------------|
Ab------2----2---2---2----------------------2----2---2---2--------------------|
Eb---0---------3--------5------6--5-3^--0---------3-------5-----6--5^---------|
"Man in the Box" (riff 1)
Eb----------------------------------------------------------------------------|
Bb----------------------------------------------------------------------------|
Gb----------------------------------------------------------------------------|
Db-----------------------------------------------------------5^---------------|
Ab---5---5-5---5---5-5---5---5-5---5---5------5---7---------------------------|
Eb---0---0-0---0---0-0---0---0-0---0---0--------------------------------------|
Eb---------------------------------------------------------------------3---2---------|
Bb---------------------------------------------------------------------3---3---2-----|
Gb---------------------------------------------------------------------0---2---2-----|
Db----------------------------------------------------------------2---0---0---2------|
Ab---5---5-5---5---5-5---5---5-5----7---5-------------------2---2---0---0------------|
Eb---0---0-0---0---0-0---0---0-0------------7--6--5--3^---0---3----------0--3--------|
6.LOVE,HATE,LOVE
Intro: (With Chorusing)
------------------0------------0---l--------------------12-------------------------------|
-------------9-------------6-------l----------------9------------------13-----12---------|
-------10-------------7------------l-----------10-------------/-14------------13---------|
---0-------------------------------l-----------------------------------------------------|
-----------------------------------l-----------------------------------------------------|
-----------------------------------l-----0-----------------------------------------------|
Do that one more time and then do this part and repeat it:
-----------------0------------0----------------l--------------12---------------------|
-------------9------------6------------6-------l-----------9---------------13----12--|
-------10-------------7---------------------7--l------10-----------/-14----------13--|
---0-------------------------------------------l-------------------------------------|
-----------------------------------------------l-------------------------------------|
-----------------------------------------------l--0----------------------------------|
Verse: (Distortion) PM everything.
---------------------------------------------------|
---------------------------------------------------|
----10----------10---10----9----10--------9----10--|
----12----------12---12---12---12--------12---12---|
---------------------------------------------------|
---------------------------------------------------|
-----------------------------------------------------------------------------------------|
-----------------------------------------------------------------------------------------|
---10-------------10--10---9----10---------9----10---------------------------------------|
----9---------------9----9---9-----9----------9-----9------------------------------------|
-----------------------------------------------------------------------------------------|
-----------------------------------------------------------------------------------------|
Repeat it a few times then: (PM all of this too)
--------------------------------------------------------------------------------|
-------------------9---------6-------6---------------9--------9----6--------6--|
------------------10--------7-------7--------------10-------10---7--------7----|
---0---0---0-----------0-------0-------0---0------------0---------------0-------|
--------------------------------------------------------------------------------|
--------------------------------------------------------------------------------|
------------------9---------13--------12---------------------------------|
-----------------10--------14---------13---------------------------------|
-------------------------------------------------------------------------|
------------------------------------------------------9-9-9-9-9-9-9-9-9--|
------------------------------------------------------7-7-7-7-7-7-7-7-7--|
---0---0---0----------0-----------0----------0---------------------------|
Repeat the above two measures, but leave out the E chords at the end.
Yes, I'll throw in the solo:
------------------------------------------------------------------l--------------------|
------------------------------------------------------------------l--------------------|
------------------------------------------------------------------l--------------------|
--------------------------------~~------------------------------l----------------------|
---5 B---------5---7 B-----7-----------5----7--------------l---------------------------|
---------------------------------------------------------8----5--l---7-------3-B----0--|
------------4----------~~--l--------------------------------------------------------------------|
-------5---------------5----l-----15-B P 12-----------------------------------------------------|
-----------------------------l-------------------------14 B P 12------~~-----------------12-----|
--6--------------------------l-------------------------------------------14-------12--14--- 12--|
------------------------------l-----------------------------------------------------------------|
------------------------------l-----------------------------------------------------------------|
------------------------------------------------------|
------------------------------------------------------|
------------------------------------------------------|
------7--6---------------------------------------~~~--|
--------------7---8---------5----7-----7-B---7--------|
------------------------8-----------------------------|
----------------------------------12----------10-------------------------------|
----------------9---10---12----------12---------------10---9------------~~~~~--|
---9---10------------------------------------------------------------10----9---|
-------------------------------------------------------------------------------|
-------------------------------------------------------------------------------|
-------------------------------------------------------------------------------|
--------------------------------------------|
----------------------------------10-----9--|
----------------------------------10-----7--|
---9---10---12------------------------------|
---------------------11---12----------------|
--------------------------------------------|
------------------------------------------------------------------------------------------------|
------------------------------------------------------------------------------------------------|
----------------------------------9--B-------9-P-10-P-12-P-10-P-9-------------------------------|
-------------------7--B--------------------------------------------------------12-P-10-P-9--7--|
----5--B---0--------------7---------------------------------------------------------------------|
------------------------------------------------------------------------------------------------|
-----------------------------------------------------l--------------10---10-------12--12--
-----------------------------------------------------l----------------------------------------|
-----------------------------------------------------l----------------------------------------|
---7---6--------------6---7----9---9-B------9-l-------7---------------------------------------|
-------------7---8----------------------------------l-----------------------------------------|
-----------------------------------------------------l----------------------------------------|
--------------------------------------------------------------------------------------------------|
--------------------------------------------------------------------------------------------------|
--------------------------------------------------------------------------------------------------|
----7----6----------------------------------------------------------------------------------------|
------------------------------------------7----7-H-8-------7-------------7-H-8--------------------|
----------------------------------------------------------------------------------------------10--|
----------------------------------------------------------------------------------------|
------15--B-------------------Dive with whammy bar------R-------------------------------|
------14--B---------------------------------------------------------R-------------------|
----------------------------------------------------------------------------------------|
-------------------------------------------------------------------------------X-----|
------------------------------------------------------------------------------X------|
Outro: (With distortion)
--------------------------------------------0-----------------|
---------------------------------------------------0----------|
---------------------------------------------------------3----|
---5---7-------------5----7------4-------------------------4--|
---5---7-------------5--- 7------4----------------------------|
---3---5----0---0----3--- 5------2----------------------------|
-------------------------------------------0----------------------------0--|
-------------------------------------------------0----------------0--------|
------------------------------------------------------2--------------------|
---4---5------------4---5-----3------------------------3-------------------|
---4---5------------4---5-----3--------------------------------------------|
---2---3----0---0---2---3-----1--------------------------------------------|
-------------------------------------------------l---------------------------------|
-------------------------------------------------l---------------------------------|
-------------------------------------------------l---------------------------------|
----------------------------------------------7--l----7----9-------------------9--|
---3---2--2--2--2--2--2-----------------------5--l----5----7-------------------7--|
---1---0--0--0--0--0--0--------------------------l---------------0--0--0--0---0----|
Repeat that outro part 4 times (I think). Then there is this weird
noise. It sounds like little pick scrapes on the top two or three
strings. Then, there is a big scrape on the bottom two strings.
After that, play the outro once and begin to slow it down.
Finally, play this and repeat it twice, but without that final D
note on the third string when your repeating it:
-----------------0-----------------0--------------|
-------------9---------------6--------------------|
-------10--------------7-----------------------7--|
---0----------------------------------------------|
--------------------------------------------------|
--------------------------------------------------|
7.IT AIN'T LIKE THAT
Riff 1
E (1)
|-)-0-----------------------------------------------|
|-(-0-----------------------------------------------|
|-)-1-----------------------------------------------|
|-(-2-----------------------------------------------|
|-)-2-----------------------------------------------|
|-(-0-------------3^...R----------------------------|
Riff 2
|--------------------------------------------------------|
|--------------------------------------------------------|
|--------------------------------------------------------|
|--------------------------------------------------------|
|----2---2------3--3---3---------------------------------|
|----0---0------1--1---1-------3----1----0---------------|
Riff 2 with this fill once in the intro
w/ wah
|-----[12]---------------------------------------------|
|-----------[12]---------------------------------------|
|------------------------------------------------------|
|------------------------------------------------------|
|------------------------------------------------------|
|------------------------------------------------------|
Riff 3
|-----------------------------------------------------|
|-----------------------------------------------------|
|-----------------------------------------------------|
|----5--------------7-------------------2-------------|
|----3-----5-------5-----7-------------0--------------|
|-----------3--------------5-------3------------------|
Solo
|---------------------------------------------------------|
|---------------------------------------------------------|
|---------------------------------------------------------|
|-----/8--7------7>5>0-----3--2---------------------------|
|---------------------------------------------------------|
|---------------------------------------------------------|
|---------------------------------------------------------|
|---------------------3---5-------------------------------|
|-----------0--2------------------------------------------|
|---2--3--------------------------------------------------|
|---------------------------------------------------------|
|---------------------------------------------------------|
(1) (1) (1)
|---------------------------------------------------------------|
|----------------------------15-------15-------15---------------|
|---------12--14--12----14^...----17^-----17^-------------------|
|---/14---------------------------------------------------------|
|---------------------------------------------------------------|
|---------------------------------------------------------------|
(1) (1) (1/2) (1)
|---------------------------------------------------------------|
|---15-----15-------15-------15---------------------------------|
|---17^----17^----R17------16-------14^----12-------------------|
|---------------------------------------------------------------|
|---------------------------------------------------------------|
|---------------------------------------------------------------|
(1) (1)
|---15^---R15-----------------------------------------------------|
|--------------------17----15..^R-----15--15--15--15--------------|
|-----------------------------------------------------------------|
|-----------------------------------------------------------------|
|-----------------------------------------------------------------|
|-----------------------------------------------------------------|
|---------------------------------------------------------------|
|---12--12--12--12-----10--10----8--8/5-------------------------|
|---------------------------------------------------------------|
|---------------------------------------------------------------|
|---------------------------------------------------------------|
|---------------------------------------------------------------|
(1)
|---------------------------------------------------------|
|---0--3^R>0----------------------------------------------|
|------------------0--------------------------------------|
|---------------------------------------------------------|
|---------------------------------------------------------|
|---------------------------------------------------------|
8.SUNSHINE
Intro and verse:
------------------------------------------------------------------|
------------------------------------------------------------------|
---------------------2----------------------2----5 B---5 B--------|
---5-P-2------------------5-P-2-----------------------------------|
---0----------0------------------------0--------------------------|
------------------------------------------------------------------|
---------------------------------------------------------------------|
---------------------------------------------------------------------|
--------------------------2------------------------------------------|
---------5-P-2----5----------------5-P-2-----------------------------|
--0----------------------------0----------------0--3B--0--3B---------|
---------------------------------------------------------------------|
Then there is this cool little riff:
---------------------------------------------------------------------|
---------------------------------------------------------------------|
---------------------------------------------------------------------|
--------0----1---2---1---0-------------------------------------------|
--3------------------------------3----0------------------------------|
---------------------------------------------------------------------|
Cool stomp riff:
--------------------------------------------------------------------------|
--------------------------------------------------------------------------|
--------------------------------------------------------------------------|
-----------------------~~---------~~~-------------------------------------|
----------------------5------------3----------------3------3--------------|
--3---5---6---7-------------7---------------5----3------3--------0--------|
Chorus:
--------------3------2---------------------------------------------------|
--3----------3------3-------6--8-------6------6-------------------------|
--2----------2------2-------5--7-------5------5------5------7-----------|
--0---------------------------3--5------3------3------5------7----------|
--0---------------------------3--5------3------3------3------5----------|
-------------------------------3--5------3------3-----------------------|
---------------------------------------------------------------------6---|
--------------3------2---------------------------------------------5-----|
--2----------2------2-------------------3-----3-------5------------------|
--2----------2------2-------------------3-----3-------3------------------|
--0-------------------------0---0-------1-----1-------3------------------|
----------------------------------------------------------3--------------|
Bridge (Play twice):
--------------3-P-2-------------2--------------5--6-P-5-----------5----------|
----------3-------------3--------------------6----------------6--------------|
------2----------------------2----------5-------------------------5---------|
--0--------------------------------------------------------------------------|
-----------------------------------------------------------------------------|
-----------------------------------------------------------------------------|
-----------------------------------------------------------------------------|
----------------3-P-2--------------------------------------------------------|
-----------2---------------2----------2------3------3---X---X---X------------|
-------2-------------------------2------------3------3---X---X---X-----------|
--0--------------------------------------------1------1---X---X---X----------|
-----------------------------------------------------------------------------|
------------------------------------------------------------------------------|
--6---6--------6------6---6---------------------------------------------------|
--5---5--------5------5---5---------------------------------------------------|
--3---3--------3------3---3---------------------------------------------------|
------------------------------------------------------------------------------|
------------------------------------------------------------------------------|
B = B
Get this song at amazon.com      Ebay     Ringtones Ringtones  


Learn to play: Songwriting, Piano, Harmonica, Guitar
Also available at Muzikum: Alice In Chains - Facelift lyrics

Related Alice in Chains Tabs

Rain When I Die tabs
Grind tabs
Rooster tabs
Song tabs
Lying Season tabs
I Am Iron Glance tabs
Rotten Apples tabs
Angry Chair Acoustic tabs
Rotten Apple Riff tabs
Got Me Wrong tabs
Again2 tabs
Whale And Wasp tabs
Heaven Beside You (2) tabs
Take Me Home tabs
God Am tabs
Leave Me Alone tabs
Chewbacca tabs
What The Hell Have I tabs
Bleed The Freak tabs
Heaven Beside You Acoustic tabs


Guitar Tabs









All tabs are property and copyright of their owners. All tabs provided for educational purposes only. Privacy Policy, DMCA