Alice in Chains

Down In The Hole Bass Tabs



More from Alice in Chains

Alice in Chains Tabs
Alice in Chains Chords
Alice in Chains Bass
Alice in Chains Lyrics




verses 1 & 3
1: |------------|--------------|-------------|-------------------|
2:Guitar|--------5-7-|--------5-----|---------5-7-|-------5-17^19^17-*|
3:intro |----5-7-----|-----5----7-5-|-----5-7-----|-----5------------*|
4: |5-7---------|-5-7----------|-5-7---------|-5-7---------------|

post-verse 1 (Down in a hole and i dont know...)

1:--------------|----------------|
2:--------5-----|---------5-5----|
3:----------5-5-|------------5-5-|
4:-5--5-5-------|-5--5-5---------|

the chorus is similar to the above

chorus (down in a hole, feeling so...)

1:--------------------------|
2:------------5-5-5--------*|
3:--------5^7-------5--5-5-*|
4:-5--5-5-------------------|

I'd like to (every number represents a word)
1:-------|
2:-------|
3:-------|
4:-5-3-0-|


1:-------------|---------------|-------------|------------------|
2:---------5-7-|-------5-4-----|---------5-7-|-------5-17^19^17-|
3:-----5-7-----|-----5-----7-5-|-----5-7-----|-----5------------|
4:-5-7---------|-5-7-----------|-5-7---------|-5-7--------------|

verse 2

1:-----------------------------------------|
2:---------------------7--7-7--7--5-------*|
3:-----------5--5-5--5--------------5-5--5*|
4:-5--5-5--5-------------------------------|


1:-----------------||
2:-(7)^5-----------||
3:-----(7)^5--5----||
4:---------------5-||



Get this song at amazon.com      Ebay     Ringtones Ringtones  


Learn to play: Songwriting, Piano, Harmonica, Guitar
More Alice In Chains lyrics available at Muzikum

Related Alice in Chains Bass Tabs

No Excuses bass
Grind bass
Again(awsome Song!!!) bass
Angry Chair bass
I Can Remember bass
I know something bass
Real Thing bass
Brother bass
I Stay Away bass
Them Bones bass
Again bass
Nutshell Ver bass
God Smack bass
Got Me Wrong bass
Over Now bass
Junkhead bass
Song bass
Soical Parasite bass
Rotten Apple bass
Swing on this bass


Guitar Tabs









All tabs are property and copyright of their owners. All tabs provided for educational purposes only. Privacy Policy, DMCA