Alice in Chains

Down In A Hole Unplugged Tabs



More from Alice in Chains

Alice in Chains Tabs
Alice in Chains Chords
Alice in Chains Bass
Alice in Chains Lyrics

tabs-database.com[http://www.tabs-database.com.com/]
tuned down 1/2 step

eb-----------------3-----2--------

Bb--0h1------1-------3-----3------

Gb------2------2-------0-----2----

Db--------2------2----------------

Ab--0-----------------------------

Eb--------------------------------



eb----------------3-3-3--2-2-2----

Bb----1-0---------3-3-3--3-3-3----

Gb--2-----2--2-2--0-0-0--2-2-2----

Db--2--------2-2--0-0-0--0-0-0----

Ab--0--------0-0--2-2-2-----------

Eb----------------3-3-3-----------

you can also play ^ this way

eb----------------3-3-3--2-2-2----

Bb----------------3-3-3--3-3-3----

Gb----------------0-0-0--2-2-2----

Db--9-10-9-7h8p7--0-0-0--0-0-0----

Ab--0-0--0-0------2-2-2-----------

Eb----------------3-3-3-----------



eb--0-1-0-0---0------0-------0----

Bb--3-3-3-3-3---3--3---3---3---3--

Gb--2-2-2-2--------0-------0------

Db--0-0-0-0--------2-------0------

Ab-----------------3-------2------

Eb-------------------------3------



eb--0--0--1------------------------------------

Bb--3--0--1------------------------------------

Gb--2--1--2------------------------------------

Db--0--2--3--5-5--5-5-5-5----------------------

Ab-----2--3--3-3--3-3-3-3-5-5-5-5b--5-5--3-3---

Eb-----0--1---------------3-3-3-3b--3-3--1-1---



eb--------13-------12-------10-----------------

Bb-----15-------15-------13----7-7h8p7---------

Gb--14-------14-------12-----------------------

Db---------------------------------------------

Ab---------------------------------------------

Eb---------------------------------------------



legend:

h-hammer-on

p-pull-off

b-bend
Added by tabs-database.com and our distinguished partners
Get this song at amazon.com      Ebay     Ringtones Ringtones  


Learn to play: Songwriting, Piano, Harmonica, Guitar
Also available at Muzikum: Alice In Chains - Down In A Hole (unplugged) lyrics

Related Alice in Chains Tabs

Sap tabs
I Know Somethin (Bout You) tabs
I Stay Away tabs
No Excuses Acoustic tabs
Real Thing tabs
Heaven Beside You*intro* tabs
Choke tabs
Facelift Album tabs
Love Hate Love tabs
It Aint Like That tabs
Sunshine tabs
The Devil Put Dinosaurs Here tabs
Heaven Beside You Acoustic tabs
I Can't Remember tabs
Got Me Wrong Btab tabs
Right Turn tabs
Heaven Beside You1 tabs
Rooster (unplugged) tabs
Them Bones tabs
Chewbacca tabs


Guitar Tabs









All tabs are property and copyright of their owners. All tabs provided for educational purposes only. Privacy Policy, DMCA