Alice in Chains

Distance Aside Tabs



More from Alice in Chains

Alice in Chains Tabs
Alice in Chains Chords
Alice in Chains Bass
Alice in Chains Lyrics



Song: Distance Aside
Location: January 1989 Demo Tape

Transcriber: Matt Rouse [an294@detroit.freenet.org]

Origin: This file originally came from "Alice In Chains: The Rarities"
Check us out at: http://www.epalis.com/AliceInChains

Notes: It's in standard tuning, which makes me wonder if it is Jerry playing
guitar. It's all here though. Questions, comments, corrections? Send
some e-mail!


[Intro]
[Gtr.1 Electric w/Distortion]
E|-------------------------------------------------------------------------|
B|-------------------------------------------------------------------------|
G|-9--9-9------------9--9-9------------9--9-9------------9--9-9------------|
D|-9--9-9------------9--9-9------------9--9-9------------9--9-9------------|
A|-7--7-7-7--7-7-7---7--7-7-7--7-7-7---7--7-7-7--7-7-7---7--7-7-7--7-7-7---|
E|-0--0-0-8--8-8-7-0-0--0-0-8--8-8-7-0-0--0-0-8--8-8-7-0-0--0-0-8--8-8-7-0-|

[Intro] (cont.)
[Gtr.1 Electric w/Distortion]
E|-------------------------------------------------------------------------|
B|-------------------------------------------------------------------------|
G|-9--9-9------------9--9-9------------9--9-9------------9--9-9------------|
D|-9--9-9------------9--9-9------------9--9-9------------9--9-9------------|
A|-7--7-7-7--7-7-7---7--7-7-7--7-7-7---7--7-7-7--7-7-7---7--7-7-7--7-7-7---|
E|-0--0-0-8--8-8-7-0-0--0-0-8--8-8-7-0-0--0-0-8--8-8-7-0-0--0-0-8--8-8-7-0-|


[First Verse]
[Gtr.1 Electric w/Distortion & Flanger]
E|-------------------------------------------------------------------------|
B|-------------------------------------------------------------------------|
G|-4---4-5-4---4-4-4-5---5-7-5---5-5-5-4---4-5-4---4-4-4-5---5-7-5---5-5-5-|
D|-X---X-X-X---X-X-X-X---X-X-X---X-X-X-X---X-X-X---X-X-X-X---X-X-X---X-X-X-|
A|-2---2-3-2---2-2-2-3---3-5-3---3-3-3-2---2-3-2---2-2-2-3---3-5-3---3-3-3-|
E|-------------------------------------------------------------------------|

[First Verse] (cont.)
[Gtr.1 Electric w/Distortion & Flanger]
E|-------------------------------------------------------------------------|
B|-------------------------------------------------------------------------|
G|-4---4-5-4---4-4-4-5---5-7-5---5-5-5-4---4-5-4---4-4-4-5---5-7-5---5-5-5-|
D|-X---X-X-X---X-X-X-X---X-X-X---X-X-X-X---X-X-X---X-X-X-X---X-X-X---X-X-X-|
A|-2---2-3-2---2-2-2-3---3-5-3---3-3-3-2---2-3-2---2-2-2-3---3-5-3---3-3-3-|
E|-------------------------------------------------------------------------|


[First Verse Break]
[Gtr.1 Electric w/Distortion]
E|-------------------------------------------------------------------------|
B|-------------------------------------------------------------------------|
G|-9--9-9------------9--9-9------------9--9-9------------9--9-9------------|
D|-9--9-9------------9--9-9------------9--9-9------------9--9-9------------|
A|-7--7-7-7--7-7-7---7--7-7-7--7-7-7---7--7-7-7--7-7-7---7--7-7-7--7-7-7---|
E|-0--0-0-8--8-8-7-0-0--0-0-8--8-8-7-0-0--0-0-8--8-8-7-0-0--0-0-8--8-8-7-0-|


[First Verse Resume]
[Gtr.1 Electric w/Distortion & Flanger]
E|-------------------------------------------------------------------------|
B|-------------------------------------------------------------------------|
G|-4---4-5-4---4-4-4-5---5-7-5---5-5-5-4---4-5-4---4-4-4-5---5-7-5---5-5-5-|
D|-X---X-X-X---X-X-X-X---X-X-X---X-X-X-X---X-X-X---X-X-X-X---X-X-X---X-X-X-|
A|-2---2-3-2---2-2-2-3---3-5-3---3-3-3-2---2-3-2---2-2-2-3---3-5-3---3-3-3-|
E|-------------------------------------------------------------------------|


[First Chorus]
[Gtr.1 Electric w/Distortion]
E|---------0---------------------0------------------|
B|---------0---------0-----------0------------------|
G|-7-----------------0-----------0------------------|
D|-X----2-------5------4------2-----3-3-3-3--3--3---|
A|-5----2-------5--5-----5----3-----3-3-3-3--3--3---|
E|------0-------3----------3--------1-1-1-1--1--1-0-|
P.M.
[First Chorus] (cont.)
[Gtr.1 Electric w/Distortion]
E|----0---------------------0-------0--|
B|----0---------0-----------0-------0--|
G|--------------0-----------0-------0--|
D|-2-------5------4------2-------2-----|
A|-2-------5--5-----5----3-------3-----|
E|-0-------3----------3----------------|


[Chorus Outro]
[Gtr.1 Electric w/Distortion]
E|-------------------------------------------------------------------------|
B|-------------------------------------------------------------------------|
G|-9--9-9------------9--9-9------------9--9-9------------9--9-9------------|
D|-9--9-9------------9--9-9------------9--9-9------------9--9-9------------|
A|-7--7-7-7--7-7-7---7--7-7-7--7-7-7---7--7-7-7--7-7-7---7--7-7-7--7-7-7---|
E|-0--0-0-8--8-8-7-0-0--0-0-8--8-8-7-0-0--0-0-8--8-8-7-0-0--0-0-8--8-8-7-0-|


[Second Verse]
[Gtr.1 Electric w/Distortion & Flanger]
E|-------------------------------------------------------------------------|
B|-------------------------------------------------------------------------|
G|-4---4-5-4---4-4-4-5---5-7-5---5-5-5-4---4-5-4---4-4-4-5---5-7-5---5-5-5-|
D|-X---X-X-X---X-X-X-X---X-X-X---X-X-X-X---X-X-X---X-X-X-X---X-X-X---X-X-X-|
A|-2---2-3-2---2-2-2-3---3-5-3---3-3-3-2---2-3-2---2-2-2-3---3-5-3---3-3-3-|
E|-------------------------------------------------------------------------|


[Second Chorus]
[Gtr.1 Electric w/Distortion]
E|---------0---------------------0------------------|
B|---------0---------0-----------0------------------|
G|-7-----------------0-----------0------------------|
D|-X----2-------5------4------2-----3-3-3-3--3--3---|
A|-5----2-------5--5-----5----3-----3-3-3-3--3--3---|
E|------0-------3----------3--------1-1-1-1--1--1-0-|
P.M.
[Second Chorus] (cont.)
[Gtr.1 Electric w/Distortion]
E|----0---------------------0-------0--|
B|----0---------0-----------0-------0--|
G|--------------0-----------0-------0--|
D|-2-------5------4------2-------2-----|
A|-2-------5--5-----5----3-------3-----|
E|-0-------3----------3----------------|


[Interlude/Solo]
[Gtr.1 Electric w/Distortion]
E|-------------------------------------------------------------------------|
B|-------------------------------------------------------------------------|
G|-------------------------------------------------------------------------|
D|-2-3-3-3--2-2-3-----2-3-3-3----2-3-----2-3-3-3----2-3-----2-3-3-3----2-3-|
A|-2-3-3-3--2-2-3---2-2-3-3-3----2-3---2-2-3-3-3----2-3---2-2-3-3-3----2-3-|
E|-0-1-1-1--0-0-1---0-0-1-1-1----0-1---0-0-1-1-1----0-1---0-0-1-1-1----0-1-|
||
| [Gtr.2 Electric w/Distortion] |
E|-------------------------------------------------------------------------|
B|-------------------------------------------------------------------------|
G|-14b16-----------r14p12~-------------------------------------------------|
D|-------------------------------------12-14------15------15p14p12--------|
A|-------------------------------------------------------------------------|
E|-------------------------------------------------------------------------|

[Interlude/Solo] (cont.)
[Gtr.1 Electric w/Distortion]
E|-------------------------------------------------------------------------|
B|-------------------------------------------------------------------------|
G|-------------------------------------------------------------------------|
D|---2-3-3-3----2-3-----2-3-3-3----2-3-----2-3-3-3----2-3-----2-3-3-3----2-|
A|-2-2-3-3-3----2-3---2-2-3-3-3----2-3---2-2-3-3-3----2-3---2-2-3-3-3----2-|
E|-0-0-1-1-1----0-1---0-0-1-1-1----0-1---0-0-1-1-1----0-1---0-0-1-1-1----0-|
||
| [Gtr.2 Electric w/Distortion] |
E|---------------------------------------------------------5-3-------------|
B|------------------------------------------------5---5--------5~----------|
G|-----------------------------------------4-7--4-------4------------------|
D|-------------------------------------------------------------------------|
A|-------------------------------------------------------------------------|
E|-------------------------------------------------------------------------|
Pinch Harmonics
[Interlude/Solo] (cont.)
[Gtr.1 Electric w/Distortion]
E|-------------------------------------------------------------------------|
B|-------------------------------------------------------------------------|
G|-------------------------------------------------------------------------|
D|-3----2------------------------------------------------------------------|
A|-3--3-2------------------------------------------------------------------|
E|-1--1-0------------------------------------------------------------------|
| P.M. |
| [Gtr.2 Electric w/Distortion] |
E|--------------------------------------------------------------12----12~--|
B|--------------------12-------------------------12-15b17-15b17----15------|
G|---------12h14-14b16---14p12-14p12-12b14r12-12---------------------------|
D|----12h14----------------------------------------------------------------|
A|-------------------------------------------------------------------------|
E|-------------------------------------------------------------------------|


[Interlude/Solo Outro]
[Gtr.1 Electric w/Distortion]
E|-------------------------------------------------------------------------|
B|-------------------------------------------------------------------------|
G|-9--9-9------------9--9-9------------9--9-9------------9----9------------|
D|-9--9-9------------9--9-9------------9--9-9------------9----9------------|
A|-7--7-7-7--7-7-7---7--7-7-7--7-7-7---7--7-7-7--7-7-7---7----7-7--7-7-7---|
E|-0--0-0-8--8-8-7-0-0--0-0-8--8-8-7-0-0--0-0-8--8-8-7-0-0--0-0-8--8-8-7-0-|


[Third Verse]
[Gtr.1 Electric w/Distortion & Flanger]
E|-------------------------------------------------------------------------|
B|-------------------------------------------------------------------------|
G|-4---4-5-4---4-4-4-5---5-7-5---5-5-5-4---4-5-4---4-4-4-5---5-7-5---5-5-5-|
D|-X---X-X-X---X-X-X-X---X-X-X---X-X-X-X---X-X-X---X-X-X-X---X-X-X---X-X-X-|
A|-2---2-3-2---2-2-2-3---3-5-3---3-3-3-2---2-3-2---2-2-2-3---3-5-3---3-3-3-|
E|-------------------------------------------------------------------------|

[Third Verse] (cont.)
[Gtr.1 Electric w/Distortion & Flanger]
E|-------------------------------------------------------------------------|
B|-------------------------------------------------------------------------|
G|-4---4-5-4---4-4-4-5---5-7-5---5-5-5-4---4-5-4---4-4-4-5---5-7-5---5-5-5-|
D|-X---X-X-X---X-X-X-X---X-X-X---X-X-X-X---X-X-X---X-X-X-X---X-X-X---X-X-X-|
A|-2---2-3-2---2-2-2-3---3-5-3---3-3-3-2---2-3-2---2-2-2-3---3-5-3---3-3-3-|
E|-------------------------------------------------------------------------|

[Third Chorus]
[Gtr.1 Electric w/Distortion]
E|---------0---------------------0------------------|
B|---------0---------0-----------0------------------|
G|-7-----------------0-----------0------------------|
D|-X----2-------5------4------2-----3-3-3-3--3--3---|
A|-5----2-------5--5-----5----3-----3-3-3-3--3--3---|
E|------0-------3----------3--------1-1-1-1--1--1-0-|
P.M.
[Third Chorus] (cont.)
[Gtr.1 Electric w/Distortion]
E|----0---------------------0-------0--|
B|----0---------0-----------0-------0--|
G|--------------0-----------0-------0--|
D|-2-------5------4------2-------2-----|
A|-2-------5--5-----5----3-------3-----|
E|-0-------3----------3----------------|

[Third Chorus] (cont.)
[Gtr.1 Electric w/Distortion]
E|----0---------------------0------------------|
B|----0---------0-----------0------------------|
G|--------------0-----------0------------------|
D|-2-------5------4------2-----3-3-3-3--3--3---|
A|-2-------5--5-----5----3-----3-3-3-3--3--3---|
E|-0-------3----------3--------1-1-1-1--1--1-0-|

[Third Chorus] (cont.)
[Gtr.1 Electric w/Distortion]
E|----0---------------------0-------0--|
B|----0---------0-----------0-------0--|
G|--------------0-----------0-------0--|
D|-2-------5------4------2-------2-----|
A|-2-------5--5-----5----3-------3-----|
E|-0-------3----------3----------------|


[Outro]
[Gtr.1 Electric w/Distortion]
E|-------------------------------------------------------------------------|
B|-------------------------------------------------------------------------|
G|-9--9-9------------9--9-9------------9--9-9------------9--9-9------------|
D|-9--9-9------------9--9-9------------9--9-9------------9--9-9------------|
A|-7--7-7-7--7-7-7---7--7-7-7--7-7-7---7--7-7-7--7-7-7---7--7-7-7--7-7-7---|
E|-0--0-0-8--8-8-7-0-0--0-0-8--8-8-7-0-0--0-0-8--8-8-7-0-0--0-0-8--8-8-7-0-|

[Outro] (cont.)
[Gtr.1 Electric w/Distortion]
E|-------------------------------------------------------------------------|
B|-------------------------------------------------------------------------|
G|-9--9-9------------9--9-9------------9--9-9------------------------------|
D|-9--9-9------------9--9-9------------9--9-9---------------3-3------------|
A|-7--7-7-7--7-7-7---7--7-7-7--7-7-7---7--7-7-7--7-7-7----2-3-3------------|
E|-0--0-0-8--8-8-7-0-0--0-0-8--8-8-7-0-0--0-0-8--8-8-7-0--0-1-1------------|
P.M.

___


Get this song at amazon.com      Ebay     Ringtones Ringtones  


Learn to play: Songwriting, Piano, Harmonica, Guitar
Also available at Muzikum: Alice In Chains - Distance Aside lyrics

Related Alice in Chains Tabs

Again2 tabs
Sick Man tabs
Voices tabs
Chewbacca tabs
Distance Aside tabs
I Know Somethin (Bout You) tabs
Fear The Voices tabs
Junkhead tabs
Lying Season tabs
Sludge Factory tabs
It Aint Like That tabs
Them Bones Solo tabs
I Stay Away tabs
Nutshell tabs
Take Me Home tabs
Song tabs
Bleed The Freak tabs
Again tabs
Dam That River Intro tabs
Get Born Again1 tabs


Guitar Tabs









All tabs are property and copyright of their owners. All tabs provided for educational purposes only. Privacy Policy, DMCA