Alice in Chains

Dam That River 99.9 % Bass Tabs



More from Alice in Chains

Alice in Chains Tabs
Alice in Chains Chords
Alice in Chains Bass
Alice in Chains Lyrics




Alice In Chains- Dam That River
Intro 0:00
G-------------------------------------------
D-------------------------------------------
A-------------------------------------------
D-3-4-5-0-5-6-7-6-5-3-0-3-4-5-0-5-6-7-6-5-3-
REPEAT INTRO
VERSE 0:23
G-------------------------------------------
D-------------------------------------------
A------------------------------------------- 4X
D-3-4-5-0-5-6-7-6-5-3-0-3-4-5-0-5-6-7-6-5-3-
CHORUS 0:46
G-------------------------------------------
D-------------------------------------------
A------------------------------------------- 4X
D-3-4-5-0-5-6-7-6-5-3-0-3-4-5-0-5-6-7-6-5-3-
REPEAT VERSE 1:09 4X
REPEAT CHORUS 1:33 4X
SOLO 1:57
G--------|-------------------------------------
D--------|-------------------------------------
A--------|----------5-------------------------- 2X
D-7-6-5-3|-33-3333-3-6-3-6-3-000-0--0~-7-6-5-3-

G--------------------------------------------------------------------------
D--------------------------------------------------------------------------
A--------------------------------------------------------------------5-----
D-3-3-3-3-3-3--3-3-3-3-3-3-3-6-3-6-3-0-0-0-0-0-0-00-0--66-5-33333333--6-3-0
REPEAT VERSE 2:21 4X
REPEAT CHORUS 2:44 4X



Get this song at amazon.com      Ebay     Ringtones Ringtones  


Learn to play: Songwriting, Piano, Harmonica, Guitar
More Alice In Chains lyrics available at Muzikum

Related Alice in Chains Bass Tabs

Down In A Hole Unplugged bass
I Can't Remember bass
Rooster (detailed) bass
Over Now bass
I know something bass
Put You Down bass
Sickman bass
Sea Of Sorrow bass
Again(awsome Song!!!) bass
Facelift bass
Grind bass
I Can Remember bass
Nutshell Mtv Unplugged bass
Song bass
Swing on this bass
Rooster bass
Sunshine bass
Dirt bass
Brother bass
Would bass


Guitar Tabs









All tabs are property and copyright of their owners. All tabs provided for educational purposes only. Privacy Policy, DMCA