Alice in Chains

Angry Chair Solo Tabs



More from Alice in Chains

Alice in Chains Tabs
Alice in Chains Chords
Alice in Chains Bass
Alice in Chains Lyrics

Band: Alice In Chains

Song: Angry Chair (Solo)
Album: Dirt
Tabbed By: Mike Wilson (juicypots@hotmail.com)
This is the way I play the Angry Chair Solo. There is a bit near the start, which is hard to hear so that part might be wrong but the rest sounds good to me.
  Tune down a half step (Eb Ab Db Gb Bb Eb)
Ok, on the first note you have to tremolo pick the 22 and slowly bend it up to 24
/ = Slide down
B = Bend
~ = Vibrato
/ = Press up and down on whammy bar
h = Hammer On
p = Pull off
E|--22b24-----------------------------------------------------|
B|-------------------------------------15-17-17-17------------|
G|------------------------------------------------------------|
D|----------12-14~---12/12/12/-----------------------------|
A|--------------------------------12--------------------------|
E|------------------------------------------------------------|

E|------------------------------------------17b19-------------|
B|-17-15-14---------------------------------------------------|
G|----------17-16-15-14------14b16----------------------------|
D|-----------------------17----------17p14--------------------|
A|------------------------------------------------------------|
E|------------------------------------------------------------|

E|----------------------------------------------17/-----------|
B|--17-17-17-17-17-17-17-17-17?15~------15-17~--17/-----------|
G|----------------------------------16------------------------|
D|------------------------------------------------------------|
A|------------------------------------------------------------|
E|------------------------------------------------------------|
Get this song at amazon.com      Ebay     Ringtones Ringtones  


Learn to play: Songwriting, Piano, Harmonica, Guitar
Also available at Muzikum: Alice In Chains - Angry Chair Solo lyrics

Related Alice in Chains Tabs

Godsmack tabs
Waht The Hell Have I tabs
Alone tabs
Nutshell tabs
Rotten Apple tabs
Bleed the freak intro tabs
Chemical Addiction tabs
It Ain't Like That tabs
Alice In Chains Album tabs
Died tabs
Lab Monkey tabs
Would Unplugged tabs
Get Born Again-1 tabs
Dirt tabs
Would tabs
Them Bones Guitar Solo tabs
Rotten Apple Riff tabs
Facelift Album tabs
Get Born Again tabs
Down In A Hole Unplugged tabs


Guitar Tabs









All tabs are property and copyright of their owners. All tabs provided for educational purposes only. Privacy Policy, DMCA