Alan Jackson

Alan Jackson - The Blues Man lead guitar tab

The Blues Man

CD: Greatest Hits Volume II

/ = slide

^ = bend

pb = pre-bend

pbr = pre-bend release

r = release

p = pull off

h = hammer-on

1st solo:

e-------------------------------------10-7--------

b-----8-8---10^(12)-8---8---8-10^(12)------(12)r8-

g-7/9-----9-----------9---------------------------

d-------------------------------------------------

a-------------------------------------------------

e-------------------------------------------------

e----------------------------------

b---8-10^(12)r(10)p8---------------

g-9-------------------12---(12)-12-

d---------------------12h14p12--12-

a----------------------------------

e----------------------------------

2nd solo:

e--------------------------------------------

b-----8-8---8-10^(12)--10pb(12)r(10)p8--10-8-

g-7/9-----9----------------------------------

d--------------------------------------------

a--------------------------------------------

e--------------------------------------------

e------------------------------------

b-----8/12-12\10-10\8-8--12-10\8-----

g-9\7----------------------------9-7-

d------------------------------------

a------------------------------------

e------------------------------------

e---------------------------------------------

b-8-----------------------15-15-15-12-15^(17)-

g---7/9\7---------------7---------------------

d---------9\7-5---5-7/9-----------------------

a---------------7-----------------------------

e---------------------------------------------

e----------------------------------------------------------

b-12-15---------15pb(17)r(15)p12--15-12--------------------

g-------14^(16)-------------------------14^(16)r(14)p12----

d-------------------------------------------------------14-

a----------------------------------------------------------

e----------------------------------------------------------

e-10----10----10----10----10-10----------------------------

b-10h12-10h12-10h12-10h12-10-10------------8/12-10-8h10-8-8

g-------------------------------8/10\8-7(7)----------------

d-------------------------------9/11\9-7(7)----------------

a----------------------------------------9-----------------

e----------------------------------------------------------

third solo:

rake

e----------------15-15-15----15---------

b-10p8-8---------15-15----17----15^(17)-

g--------9\7-7---16-16------------------

d----------------17-17------------------

a---------------------------------------

e---------------------------------------

e-15-15-15----15^(17)r(15)p13-15--------------------------

b-15-15----17--------------------15^(17)-15pb(17)r(15)p12-

g-16-16---------------------------------------------------

d-17-17---------------------------------------------------

a---------------------------------------------------------

e---------------------------------------------------------

e--------------------------------------

b---------15---------------------------

g-14^(16)----(16)r(14)p12----12h14-12--

d-------------------------14-----------

a--------------------------------------

e--------------------------------------

e-10----10----------------------------10-7-------------

b-10h12-10h12-10----10-8-10/12-10^(12)----(12)r10p8-10-

g----------------12------------------------------------

d------------------------------------------------------

a------------------------------------------------------

e------------------------------------------------------

e----------------------------------------------

b-10^(12)-12-12r10-10-10-10\8-8-8-8\7-10^(12)--

g----------------------------------------------

d----------------------------------------------

a----------------------------------------------

e----------------------------------------------

e-----------------------------

b-12pbr10p8-10-8-8------------

g------------------9/7--------

d----------------------9/7-5--

a-----------------------------

e-----------------------------

steel and mandolin and fade out.

Get this song at:  amazon.com sheetmusicplus.com

Share your thoughts

0 Comments found