Alan Jackson

Alan Jackson - Tall Tall Trees solo guitar tab

Lead Guitar Solo

****************************************************

b = bend, br = bend and release, h = hammer on

****************************************************

Electric Guitar:

Use Drop "D" Tunning (6=D,5=A,4=D,3=G,3=B,1=E)

Hey!...

G

E-----------------------|-------------------------|--

B-----------------------|-------------------------|--

G-----------------------|-------------------------|--

D-----------------------|-------0-----------------|--

A-----------------0-----|-------------------------|--

E--0--0--0--0--0-----0--|---7b-----7br--5--2--0---|--

D

E--------------------------|-------------------------

B--------------------------|-------------------------

G--------------------------|-------------------------

D--------------------------|-------------0---3br---0-

A-----------0--------------|-------0--2--------------

E------2h4----2br--0----0--|--2h4--------------------

G pedal steel solo...

---|----------------|

---|----------------|

---|----------------|

---|----0-----------|

--0|h2--------------|

---|--------7br--3--|

Get this song at:  amazon.com sheetmusicplus.com

Share your thoughts

0 Comments found