Alan Jackson

Alan Jackson - Remember When Mandolin s guitar tab

mandolin tabs

---3-2-3---------------0-2-3-3-3-2-0---3-2-3

---------5-2-------------------------5------

-------------5-2----------------------------

--------------------------------------------

------------0-2-3-3-3-2-3-5---------3-2-3---

--5-2---------------------------------------

------5-2-----------------------------------

--------------------------------------------

Get this song at:  amazon.com sheetmusicplus.com

Share your thoughts

0 Comments found