Alan Jackson

Alan Jackson - Dont Rock The Jukebox guitar tab

#----------------------------------PLEASE NOTE---------------------------------#

#This file is the author's own work and represents their interpretation of the #

#song. You may only use this file for private study, scholarship, or research. #

#------------------------------------------------------------------------------#

#

From: "Mark Albert"

Subject: j/jackson_alan/dont_rock_the_jukebox.tab

Date: Thu, 1 Nov 2001 22:43:00 -0500

DON'T ROCK THE JUKEBOX (A. Jackson - R. Murrah - K. Stegall)

performed by Alan Jackson (1991)

G C G

Don't rock the jukebox I wanna hear some Jones

G D

'Cause my heart ain't ready for the Rolling Stones

G C G

I don't feel like rockin' since my baby's gone

C G D G

So don't rock the jukebox play me a country song

C G

Before you drop that quarter keep one thing in mind

A D

You got a heartbroke hillbilly standing here in line

C G C

I've been down and lonely ever since she left

G D G

Before you punch that number could I make one request

G C G

Don't rock the jukebox I wanna hear some Jones

G D

'Cause my heart ain't ready for the Rolling Stones

G C G

I don't feel like rockin' since my baby's gone

C G D G

So don't rock the jukebox play me a country song

C G

I ain't got nothing against rock & roll

A D

But when your heart's been broken you need a song that's slow

C G C

There ain't nothin' like a steel guitar to drown a memory

G D G

Before you spend your money babe play a song for me

G C G

Don't rock the jukebox I wanna hear George Jones

G D

My heart ain't ready for the Rolling Stones

G C G

I don't feel like rockin' since my baby's gone

C G D G C

So don't rock the jukebox play me a country song

G D G

So don't rock the jukebox play me a country song

VERSE 1 LEAD GUITAR RIFFS (triplet eighths)

___ __ ________

| | | | | | | | | | | | | | | | |

|--------------------6---|------------------------|-------13---------------|

|------------------------|-----8------------------|-------12----12---------|

|-------x-x-x--7-(9)-----|7(9)---(9)-7--5---------|-------------10---------|

|----------------B-------|-B--------R-------------|------------------------|

|------------------------|------------------------|------------------------|

|------------------------|------------------------|------------------------|

___ __ __ __ __ __

| | | | | | | | | | | | | | | | | | |

|------------------------|------------------------|------------------------|

|(6)5-------------------3|------------------------|------------------------|

|--R--5-----5-3-----5---|3(4)--------------------|-----------------------0|

|--------5----S----------|-B---5--------------3---|------------------------|

|------------------------|-----------------x------|--5---------------------|

|------------------------|------------------------|------------------------|

___ ___ ___ __

| | | | | | | | | | | |

|------------------------|------------------------|------------------------|

|-3-1-0------------------|------------------------|------------------------|

|--P-P--3-2-0------------|------------------------|------------------------|

|--------P-P--3-2-0-----0|------------------------|------------------------|

|--------------P-P---2---|------------------------|------------------------|

|-------------------/----|--3---------------------|------------------------|

SOLO (triplet eighths)

___ __ __ ________

| | | | | | | | | | | | | | | | | |

|------------------------|-------10---------------|--6---------------------|

|-----------------------8|10(12)------(12)10--8---|-----8-----------8------|

|-------------------7-9--|--B------------R--------|--------7----(9)---(9)-7|

|------------------------|------------------------|------------B---------R-|

|------------------------|------------------------|------------------------|

|------------------------|------------------------|------------------------|

__ ________ __ ___ __ ________

| | | | | | | | | | | | | | | | | | | | |

|--------------3---------|------------------------|-------10-----7---------|

|-------6--------6------|-----------------------8|-10(12)---------(8)-6---|

|--5-(7)------------(7)-5|--3----------------7-9--|---B---------------R---x|

|-S--B-----------------R-|-----5------------------|------------------------|

|------------------------|------------------------|------------------------|

|------------------------|------------------------|------------------------|

__ __ __ ___

| | | | | | | | | | | | | |

|--------3---------------|------------------------|------------------------|

|------------------------|------------------------|------------------------|

|--5-(7)----(7)53----3---|------------------------|------------------------|

|----B--------R-P-5------|--5-----3-----2--0-----0|------------------------|

|------------------------|-------------------1-2--|------------------------|

|------------------------|--------------------H---|--3---------------------|

CODA TAG

___ __

| | | | | | |

|---x-x-(7)-5------------|------------------------|------------------------|

|----------R---6---------|------------------------|------------------------|

|------------------------|------------------------|------------------------|

|------------------------|------------------------|------------------------|

|------------------------|------------------------|------------------------|

|------------------------|------------------------|------------------------|

Get this song at:  amazon.com sheetmusicplus.com

Share your thoughts

0 Comments found