Alabama

Alabama - Dixieland Delight solo guitar tab

Alabama – Dixieland Delight (solo)

*****************************************************************

h – hammer v – vibrato / or \ slide

*****************************************************************

E----------------------------------------------------------------

B------------------3v--------------------------------------------

G--0-----0--2-2/4-----4\2----------------------------------------

D----0h2-------------------------------------0-0h2---------------

A--------------------------0-2-0---------0-2---------------------

E--------------------------------3-0-2-3-------------------------

E------------------10-----------------15—-17/19—19\17--15--------

B------8-10-10/12------12\10---15/17-----------------------------

G—7/9------------------------------------------------------------

D----------------------------------------------------------------

A----------------------------------------------------------------

E----------------------------------------------------------------

E—-19\17---14/15-------------------------------------------------

B------------------12ghost---------------------------------------

G----------------------------------------------------------------

D----------------------------------------------------------------

A----------------------------------------------------------------

E----------------------------------------------------------------

Get this song at:  amazon.com sheetmusicplus.com

Share your thoughts

0 Comments found