Alabama

Southern Star lead Tabs



More from Alabama

Alabama Tabs
Alabama Chords
Alabama Bass
Alabama Lyrics

Alabama - Southern Star (lead)

By axehappy - axehappy@

***********************************************************************


This solo is played again near the end of the song.

Each time, the repeat is played over by a fiddle.


E:---------------------------------------6---6-6-6----------
B:---------------6---6-6-6---4---4-4-4---6br-4-4-6b--6---6--
G:-------------3-5br-3-3-5b--3br-1-1-3b--------------5br-3--
D:----------3-5---------------------------------------------
A:-----1-3/5------------------------------------------------
E:--1-3-----------------------------------------------------

                                      on repeat
E----------------------------------:-----------|
B-----1---1------------------------:--3-3-3-3--|
G--0h1-0h1-0h1----3---3------------:--3-3-3-3--|
D--------------3h5-3h5-5p31-3-----:--3-3-3-3--|
A-----------------------------1-1--:---1-------|
E----------------------------------:-----------|
Get this song at amazon.com      Ebay     Ringtones Ringtones  


Learn to play: Songwriting, Piano, Harmonica, Guitar
More Alabama lyrics available at Muzikum

Related Alabama Tabs

Dixieland Delight tabs
Can't Keep A Good Man Down solo tabs
I Want To Know You tabs
High Cotton tabs
Close Enough To Perfect tabs
5 O'clock 500 tabs
Cheap Seats tabs
My Homes In Alabama intro tabs
Im In A Hurry tabs
Born Country tabs
Old Man tabs
Lady Down On Love tabs
Old Flame 4 tabs
When It All Goes South lead tabs
Mountain Music tabs
She & I tabs
Once Upon A Lifetime tabs
Then Again tabs
Take A Little Trip tabs
Love in the First Degree tabs


Guitar Tabs









All tabs are property and copyright of their owners. All tabs provided for educational purposes only. Privacy Policy, DMCA