Aguilera christina

Aguilera christina - Lady marmalade guitar tab

#-----------------------------PLEASE NOTE-------------------------------------#

#This OLGA file is the author's own work and represents their interpretation #

#of the song. You may only use this file for private study, scholarship, or #

#research. Remember to view this file in Courier, or some other monospaced #

#font. See http://www.olga.net/faq/ for more information. #

#-----------------------------------------------------------------------------#

Subject: a/aguilera_christina/lady_marmalade.btab

Christina Aguilera, Lil' Kim, Pink, Mya - Lady Marmalade

BASS TAB

by Philipp Jardas (philipp@jardas.de)

This is a very very short one, just giving you the main riff. The chords and

everything else are pretty easy to hear, so check it out yourself =)

You need a 5string for this to get the ultimate bass sound...

[Main Riff]

Gm C

B |--------------1-|----------1-----|--------------1-|----------1-----|

E |3-1-3-----1-3---|----------------|3-1-3-----1-3---|----------------|

A |------1---------|----------------|------1---------|----------------|

D |----------------|----------------|----------------|----------------|

G |----------------|----------------|----------------|----------------|

^ ^ ^ ^ ^ ^ ^ ^ ^ ^ ^ ^ ^ ^ ^ ^

C D

B |1---------------|3---------------|

E |----------------|----------------|

A |----------------|----------------|

D |----------------|----------------|

G |----------------|----------------|

^ ^ ^ ^ ^ ^ ^ ^

on a 4string play it one octave higher:

Gm C

E |----------------|----------------|----------------|----------------|

A |--------------3-|----------3-----|--------------3-|----------3-----|

D |5-3-5-----3-5---|----------------|5-3-5-----3-5---|----------------|

G |------3---------|----------------|------3---------|----------------|

^ ^ ^ ^ ^ ^ ^ ^ ^ ^ ^ ^ ^ ^ ^ ^

C D

E |----------------|----------------|

A |3---------------|5---------------|

D |----------------|----------------|

G |----------------|----------------|

^ ^ ^ ^ ^ ^ ^ ^

[End of Refrain]

after the long "Lady Marmalaaaadeeeeee" play

B |----------------|----------------|

E |----------------|6-------6---5---|

A |--------5-----3-|------3---------|

D |5-----3---------|----------------|

G |----------------|----------------|

^ ^ ^ ^ ^ ^ ^ ^

Get this song at:  amazon.com

Share your thoughts

0 Comments found