Afi

Afi - This Time Imparfect bass tab

Band:AFI

Song:This Time Imperfect(hidden track) .....i know it says 'imparfect' but mxtabs

would not let me put the word imperfect in the title...so yeah

Album:Sing The Sorrow

Tunning:D# G# C# F#

play nothing until middle of chorus 2nd chord

|--------------------------------------------|

|-----12-------9----9-10-12--10-9-10---------|

|-9-9----9-10----10-------------------10-9-7-|

|--------------------------------------------|

with drums

|----------------------------------------------------|

|----------------------------------------------------|

|----0-2-3-5-5--5/7------7-7-9-10--12-10-9-9--10-9-7-|

|-3-----------------0--------------------------------|

verse

|-----------------------------------------------------------|

|-----------------------------------------------------------|

|----0-2-3-5-5--5/7------7-7-9-10--12-10-9----10-9-7--------|

|-3-----------------0----------------------10---------0-0-2-|

|--------------------------------------------------------------|

|--------------------------------------------------------------|

|----0-2-3-5-5--5/7---------0-2-3-5-5--5/7-----7-7-7-7-7-7-7-7-|

|-3-----------------0-0-3-5----------------0-0-----------------|

chorus (x2)

|---------------------------------------------------------------|

|---------------------------------------------------------------|

|-------------------5-----------------2---2-3-5--5-4-3-4--4-4-4-|

|-0--0--0-0-0-0-2-2---2-3--3--3-3-3-3---3-----------------------|

|---------------------------|

|---------------------------|

|-----------3-3-3-3-5-5-5-5-|

|-0--0--0-0-----------------|

quiet part

|------------------------|

|------------------------|

|-7

Taken from The BassMasta -- http://www.tabs-database.com

Get this song at:  amazon.com

Share your thoughts

0 Comments found