Afi

Your Name Here Bass Tabs



More from Afi

Afi Tabs
Afi Chords
Afi Bass
Afi Lyrics



Artist - AFI
Song - Yoour Name Here
Bassist - Geoff Kresge
Tabbed by - Albert G.


Listen to song for rhythm

Intro/Verse
G|-----------------------------------------------|
D|--------------------------------9-10-9---------|
A|----------8888888-7----------10--------10------|
E|-55555555-----------88888888-------------------|


G|--------------------------------||
D|--------------------------------||
A|----------8-7------8-7-8-10-----||
E|-55555555-----10-8--------------||

Chorus
G|------------------------------------------||
D|-------------------55555555-66666-77-99---||
A|----------88888888------------------------||
E|-55555555---------------------------------||

Interlude/Break/whateveryoucallit
G|-------------------------------------------------||
D|-------------------------------------------------||
A|------8---------10-----------8-------------------||
E|-5---------8-----------5-----------8--10-10-8-7--||

G|-----------------------------------------------------||
D|-----------------------------------------------------||
A|----------88888888-----------------------------------||
E|-55555555----------88888888-10-10-10-10-10-10-8-7----||

G|------------------------------------------------||
D|------------------------------------------------||
A|----------88888888----------1010101010101010----||
E|-55555555----------88888888---------------------||

Ending
G|-------------------||
D|-------------------||
A|-------------------||
E|-5-----5------5----||



Get this song at amazon.com      Ebay     Ringtones Ringtones  


Learn to play: Songwriting, Piano, Harmonica, Guitar
Also available at Muzikum: AFI - Your Name Here lyrics

Related Afi Bass Tabs

Over Exposure bass
The Leaving Song Pt. Ii bass
Lower It bass
Who Knew bass
The Leaving Song Part 2 bass
Weathered Tomb bass
Wester bass
Days Of The Pheonix bass
What Ever I Do bass
Sacrific Theory bass
Your Name Here bass
This Time Imperfect bass
Girls Not Gray bass
Rizzo In The Box(correct) bass
This Time Imparfect bass
Last Caress bass
Miss Murder (correct Timings) bass
God Called In Sick Today bass
An Introduction bass
Dont Make Me Ill bass


Guitar Tabs









All tabs are property and copyright of their owners. All tabs provided for educational purposes only. Privacy Policy, DMCA