Afi

Wester Bass Tabs



More from Afi

Afi Tabs
Afi Chords
Afi Bass
Afi Lyrics




Intro
G|--------------------------------------------------|-----|
D|----------------1-0-------------------------------|-----|
A|-3>-6-8-6-5-1>------1/3--3>-6-8-6-5--------6-6-6--|-1>>-|
E|-------------------------------------4-4-4--------|-----|

Verse
G|-----------------------------|---------00-111-0-----------|
D|-----------------------------|-0-1-3---------------3-1----|
A|-3-3-3-3-3-3--------6-6------|3------------------------3--|
E|--------------4-4-4-----6--6-|----------------------------|

cont
G|-------|----------------|
D|-------|---------2-3-5>-|
A|-------|-------3--------|
E|-4>-6>-|-4>-3>----------|

Chorus
G|----------------------------------------------------------|
D|---------5-3-1-1-1-1-5-3-1--------------------------------|
A|-3-3-3-3--------------------1-1-1-1-1-3-1---------6-6-----|
E|------------------------------------------4-4-4-4-----6-6-|

OUTRO
G|------------------------|
D|-6-6-6-5-6-8-10-10-10-8-|
A|------------------------|
E|------------------------|



Get this song at amazon.com      Ebay     Ringtones Ringtones  


Learn to play: Songwriting, Piano, Harmonica, Guitar
Also available at Muzikum: AFI - Wester lyrics

Related Afi Bass Tabs

Born In The Usa bass
Midnight Sun bass
Holloween bass
Advances In Modern Technology bass
Despair Factor bass
Leaving Song bass
Values Here bass
The Hanging Garden bass
Perfect Fit bass
6 To bass
My Michelle bass
Story At Three bass
The Leaving Song bass
Synesthesia bass
Miss Murder 100% Correct bass
Days Of The Pheonix bass
Rizzo In The Box bass
Your Name Here bass
A Story At Three bass
Key Lime Pie bass


Guitar Tabs









All tabs are property and copyright of their owners. All tabs provided for educational purposes only. Privacy Policy, DMCA