Afi

Weathered Tomb Bass Tabs



More from Afi

Afi Tabs
Afi Chords
Afi Bass
Afi Lyrics



Artist: AFI
Song: Weathered Tomb
Album: Black Sails In The Sunset
Bassist: Hunter
Tuning: Standard
Tabbed by: Spidey255

Intro
G|--------|
D|--------|
A|--------|
E|-0>/10b-|

Verse
G|------------------------------------------------|-------------|
D|------------------------------------------------|-------------|
A|-777777-55-77777777-10-10-10-10-10-10-88-777777-|-10-12-4-5-8-|
E|------------------------------------------------|-------------|

Prechorus
G|-------------------------------------------------------------|
D|-------------------------------------------------------------|
A|-55555555555555-7777777777777777-5555555555555555----7---7---|
E|--------------------------------------------------00---0---0-|

G|---------------------------------------------------|
D|---------------------------------------------------|
A|-55555555555555-7777777777777777-00000000-22222222-|
E|---------------------------------------------------|

Chorus
G|-----------------------|------------------------|
D|-------------------5---|------------------------|
A|-777-55555-000-333---5-|-777-55555-0000---------|
E|-----------------------|----------------333-5-7-|

Post chorus
G|-----------|
D|-----------|
A|----/7>-8>-|
E|-0>/-------|

Bridge
G|----------------------------------------|
D|----------------------------------------|
A|-77777777-55555555-00000000-333/88-10-8-|
E|----------------------------------------|

G|------------------------------------------|
D|------------------------------------------|
A|-77777777-55555555-00000000----------5-7~-|
E|----------------------------3333-5-7------|

Slower repeat a few times
G|---------------------------|
D|---------------------------|
A|-777--777-10-10-12-10-55-6-|
E|---------------------------|

-intro

Ending
G|------|
D|------|
A|----7-|
E|-0>---|

Taken from The BassMasta -- http://www.tabs-database.com



Get this song at amazon.com      Ebay     Ringtones Ringtones  


Learn to play: Songwriting, Piano, Harmonica, Guitar
Also available at Muzikum: AFI - Weathered Tomb lyrics

Related Afi Bass Tabs

Narrative Of Soul Against Soul bass
The Checkered Demon bass
Consult My Lover bass
Values Here bass
Strength Through Wounding bass
Checkered Demon bass
High School Football Hero bass
Leaving Song bass
Sts Hidden Track bass
Cruise Control bass
Third Season bass
Death Of Seasons bass
The Great Dissappointment bass
The Leaving Song Pt 2 bass
Over Exposure bass
Love Like Winter bass
Of Greatings & Goodbyes bass
What Ever I Do bass
Exsanguination bass
Aspirin Free bass


Guitar Tabs









All tabs are property and copyright of their owners. All tabs provided for educational purposes only. Privacy Policy, DMCA