Afi

Values Here Bass Tabs



More from Afi

Afi Tabs
Afi Chords
Afi Bass
Afi Lyrics



Artist: A.F.I.
Song: Values Here
[Originally recorded by Dag Nasty]
Tuning: Standard

Intro 8x:
-----------------------|
-----------------------|
-------6-6--------1-1--|
-3--33-----3--33-------|

Verse 4x [What'd you say...]:
-----------------------|
-----------------------|
-------6-6--------1-1--|
-3--33-----3--33-------|

Chorus 2x [Fear of failure...]:
---------------------------------|
---------------------------------|
---------------------------------|
-3-3333333-5-5555555--666-8-3333-|

------------------------------------|
------------------------------775---|
------------------------------------|
-3-3333333-5-5555555-6-666666-------|

Transition:

E|-333333333333-|

4x:
-----------------------|
-----------------------|
-------6-6--------1-1--|
-3--33-----3--33-------|

Verse 4x [Values here...]:
-----------------------|
-----------------------|
-------6-6--------1-1--|
-3--33-----3--33-------|

Chorus 2x [Fear of failure...]:
---------------------------------|
---------------------------------|
---------------------------------|
-3-3333333-5-5555555--666-8-3333-|

------------------------------------|
------------------------------775---|
------------------------------------|
-3-3333333-5-5555555-6-666666-------|

Bridge 8x:
-----------------------|
-----------------------|
-------6-6--------1-1--|
-3--33-----3--33-------|

Chorus 2x [Fear of failure...]:
---------------------------------|
---------------------------------|
---------------------------------|
-3-3333333-5-5555555--666-8-3333-|

------------------------------------|
------------------------------775---|
------------------------------------|
-3-3333333-5-5555555-6-666666-------|

Ending:
E|-3-3333333-668-3-|

Real fun song...nice rhythm...That's how I play it and it sounds good.
Have fun. Rate it well!
-stp

Taken from The BassMasta -- http://www.tabs-database.com



Get this song at amazon.com      Ebay     Ringtones Ringtones  


Learn to play: Songwriting, Piano, Harmonica, Guitar
More AFI lyrics available at Muzikum

Related Afi Bass Tabs

Who Knew bass
Rabbits Are Roadkill On Rt. 37 bass
Despair Factor bass
Let It Be Broke bass
Smile bass
The Mother In Me bass
Dancing Through Sunday bass
Of Seasons bass
File Thirteen bass
The Leaving Song bass
The Days Of The Phoenix bass
Miss Murder bass
This Secret Ninja bass
The Hanging Garden bass
Six To Eight bass
Total Immortal (corrected 100% Right) bass
Rizzo In The Box(correct) bass
Days Of The Phoenix bass
Hearts Frozen, Soil Sod Once More bass
Modern Epic bass


Guitar Tabs









All tabs are property and copyright of their owners. All tabs provided for educational purposes only. Privacy Policy, DMCA