Afi

Totalimmortal Bass Tabs



More from Afi

Afi Tabs
Afi Chords
Afi Bass
Afi Lyrics



. = Pause
~ = Sustain
= Slide
> = Strum

Intro:
G|-------------------------------7-9-7------------------------9~---|
D|-------------------------5-7/9-------9-----------------5-7-9~---|
A|-----777-----555-----777--------------------777-----555----------|
E|-000-----333-----000--------------------000-----333--------------|


Verse:
G|--------------------------------------------------------------------------------------------------------|
D|--------------------------------------------------------------------------------------------------------|
A|-7777.-555------7777.-----5555-7777.-555--------------7777.-555------7777.----5555-7777.-555------|
E|------------3333--------333-----------------3333-5-6-3~.------------3333--------333----------------3333-|


Pre-Chorous:
G|-----------------------------------------------------|
D|-----------------------------------------------------|
A|----8-7>-(Strum this 7 and Slide Up Into the Chorus)-|
E|-7>--------------------------------------------------|


Chorus:
G|-------------------------------------------------------------------------------------|
D|-------------------------------------------------------------------------------------|
A|-7777777777-5-7777--------------22-33-44-5555555555-44-555-6-777-555-777---------5-6-|
E|-------------------2-3333333333------------------------------------------22-33-7-----|

G|----------------------------------------------------------------/11----|
D|-------------------------------------------------------------/9-----12-|
A|-7777777777-5-7777--------------22-33-44-5555555555-44-555-7-----------|
E|-------------------2-3333333333----------------------------------------|


Post Chorus:
G|-------------------------------7-9-7------------------------9>-|
D|-------------------------5-7/9-------9-----------------5-7-9>-|
A|-----777-----555-----777--------------------777-----555--------|
E|-000-----333-----000--------------------000-----333------------|


Verse:
G|--------------------------------------------------------------------------------------------------------|
D|--------------------------------------------------------------------------------------------------------|
A|-7777.-555------7777.-----5555-7777.-555--------------7777.-555------7777.----5555-7777.-555------|
E|------------3333--------333-----------------3333-5-6-3~.------------3333--------333----------------3333-|


Pre-Chorous:
G|-----------------------------------------------------|
D|-----------------------------------------------------|
A|----8-7>-(Strum this 7 and Slide Up Into the Chorus)-|
E|-7>--------------------------------------------------|


Chorus:
G|-------------------------------------------------------------------------------------|
D|-------------------------------------------------------------------------------------|
A|-7777777777-5-7777--------------22-33-44-5555555555-44-555-6-777-555-777---------5-6-|
E|-------------------2-3333333333------------------------------------------22-33-7-----|

G|----------------------------------------------------------------/11----|
D|-------------------------------------------------------------/9-----12-|
A|-7777777777-5-7777--------------22-33-44-5555555555-44-555-7-----------|
E|-------------------2-3333333333----------------------------------------|


Breakdown:
G|-----------------------------------------------------------------------------------------|
D|-------------------------------------------------------------------5-77777---------------|
A|-5-77--5-77--5-77--5-77--5-77--5-77--------3-55--------5-77--5-77------------------7-888-|
E|-------------------------------------2-33--------5-77-----------------------5-777--------|

G|-----------------------------------------------------|
D|-----------------------------------------------------|
A|-5-77--5-77--5-77--5-77--5-77--5-77--------3-55-0~---|
E|-------------------------------------2-33------------|


Chorus/Ending:
G|-------------------------------------------------------------------------------------|
D|-------------------------------------------------------------------------------------|
A|-7777777777-5-7777--------------22-33-44-5555555555-44-555-6-777-555-777---------5-6-|
E|-------------------2-3333333333------------------------------------------22-33-7-----|

G|----------------------------------------------------------------/11---------|
D|-------------------------------------------------------------/9-----12------|
A|-7777777777-5-7777--------------22-33-44-5555555555-44-555-7----------------|
E|-------------------2-3333333333----------------------------------------0~---|


Please rate



Get this song at amazon.com      Ebay     Ringtones Ringtones  


Learn to play: Songwriting, Piano, Harmonica, Guitar
Also available at Muzikum: AFI - Totalimmortal lyrics

Related Afi Bass Tabs

The Days Of The Phoenix bass
Values Here bass
The Greatest Dissapointment bass
My Michelle bass
Holloween bass
Killing Lights bass
Death Of Seasons bass
Perfect Fit bass
Miss Murder(complete) bass
6 To bass
A Story At Three bass
File Thirteen bass
Days Of The Phoenix bass
Checkered Demon bass
The Despair Factor bass
A Single Second bass
Shatty Fatimas bass
Miss Murder bass
37mm bass
This Celluloid Dream bass


Guitar Tabs









All tabs are property and copyright of their owners. All tabs provided for educational purposes only. Privacy Policy, DMCA