Afi

Total Immortal (corrected 100% Right) Bass Tabs



More from Afi

Afi Tabs
Afi Chords
Afi Bass
Afi Lyrics




Total Immortal
AFI

Intro/Riff 1
-------------------------------
-------------------------------
-------7-------------5-5-5-5---
-0-0-0---0-0-3-3-3-3-----------

------------------7---7---------
--------------7-9---9---7-5-----
-------7------------------------
-0-0-0---0-0-3------------------

-------------------------------
-------------------------------
-------7-------------5-5-5-5---
-0-0-0---0-0-3-3-3-3-----------

-----------9-
-5-5-5-7-7-9-
-------------
-------------



Verse
-------------------------------------
-------------------------------------
-7-7-7\---555-------7-7-7\------5555-
--------------3333----------333------

--------------------------------------------
--------------------7-7^(bend a step)-5---5-
-7-7-7\---555-------------------------------
--------------3333--------------------------

-------------------------------------
-------------------------------------
-7-7-7\---555-------7-7-7\------5555-
--------------3333----------333------

------------------------------------
----------------------------------3-
-7-7-7\---555------222222222222-2-3-
--------------3333------------------


Pre Chorus
---------------------------------------------------
-2222222222222222222222222222222222222222222222222-
---------------------------------------------------
---------------------------------------------------


Chorus
------------------------------------------------------------
------------------------------------------------------------
-/-7777--7-7-7-7-5-5-7-5--------------2-3-4-555555555445566-
-------------------------3333-3-3-3-3-----------------------

--------------------------------------------------------------------------
--------------------------------------------------------------------------
-7--5--7----2-5/-7777--7-7-7-7-5-5-7-5--------------2-3-4-555555555445566-
----------3----------------------------3333-3-3-3-3----------------------

-----/11---------------
---9------121212121212-
-7---------------------
-----------------------


Riff 1
-------------------------------
-------------------------------
-------7-------------5-5-5-5---
-0-0-0---0-0-3-3-3-3-----------

------------------7---7---------
--------------7-9---9---7-5---------
-------7------------------------
-0-0-0---0-0-3------------------

-------------------------------
-------------------------------
-------7-------------5-5-5-5---
-0-0-0---0-0-3-3-3-3-----------

-----------4-4-4-4-4-
-5-5-5-7-7-4-4-4-4-4-
---------------------
---------------------


Verse


Pre Chorus


Chorus


Bridge
its basically this with minor variations
-----------------------------------------
-----------------------------------------
-5h7-77777-5h7-77777-5h7-77777-5h7-77777-
-----------------------------------------

------------------------------------------------
---------------------5h7-777777-----------------
-5h7-77777-5h7-77777---------------------5h7887-
------------------------------5h7-7777----------x3
listen for the variation

end bridge with
|-----|
|-----|
|--7~-|
|-----|


Chorus


end note
|------|
|------|
|--0~--|
|------|



Get this song at amazon.com      Ebay     Ringtones Ringtones  


Learn to play: Songwriting, Piano, Harmonica, Guitar
More AFI lyrics available at Muzikum

Related Afi Bass Tabs

Charles Atlas bass
No Poetic Device bass
Hanging Garden bass
Brownie Bottom Sundae bass
The Mother In Me bass
3 1 2 bass
Porphyria Cutanea Tarda bass
Death Of Seasons bass
The Hanging Garden bass
Yurf Rendenmein bass
Transference bass
Halloween bass
Leaving Song bass
Strength Through Wounding bass
A Winters Tale bass
Morningstar bass
A Single Second bass
Smile bass
Leaving Song Part 2 bass
The Leaving Song Part 2 bass


Guitar Tabs









All tabs are property and copyright of their owners. All tabs provided for educational purposes only. Privacy Policy, DMCA