Afi

This Celluloid Dream Bass Tabs



More from Afi

Afi Tabs
Afi Chords
Afi Bass
Afi Lyrics

Artist: AFI
Song: This Celluloid Dream
Album: Sing The Sorrow
Bassist: Hunter
Tuning: Half a Step Down
Tabbed by: Spidey255
Intro second part
G|------------|-----------------------------|
D|------------|-----------------------------|
A|-1/14~-14-|-2-2-22-5555-0-------5555--0-|
E|------------|---------------3-3-33--------|
Verse
G|---------------------------------------------------|
D|--------7-77-----------------7-77------------------|
A|-22002------------5-55-22002-------------------5-0-|
E|------------33223-----------------33-2-3-5-3-2-----|
Second part of intro
Verse
play this before the prechorus
G|--------------------|
D|---------44-2-0-----|
A|-2222222--------4-2-|
E|--------------------|
prechorus
G|-------------------------------------------------|
D|-------------------------------------------------|
A|-2>-5>-0>-2>-2>-5>-4>-5>-2>-5>-9>-10>-12-14>-12>-|
E|-------------------------------------------------|
G|--------------|
D|--------------|
A|-4-5-7-5-4-0>-|
E|--------------|
Chorus
G|--------------------------------|-----------------------------------------------|
D|--------------------------------|-----------------------------------------------|
A|-22-222--------55-555-7777-0000-|-22-222/72---------22-3-55-555/125-7777-0000-|
E|--------33-33-------------------|------------33-33333---------------------------|
repeat all from second part of intro
Bridge
G|---------------9---11-|-------------------|----|
D|-9-----9-7h9p7---7----|--2/9--9-7h9p7-----|-7>-|
A|---9------------------|-----9---------7---|----|
E|-----7----------------|-----------------5-|----|
Distorted Bridge
G|----------------------------------------|----------|-------------|-----------|
D|----------------------------------------|----------|-------------|-----------|
A|-22222222-10-10-10-10-99999999-00000000-|-77777777-|-000/333-2-0-|-0000-7777-|
E|----------------------------------------|----------|-------------|-----------|
Back to slow
G|---------------9-------|
D|-9-----9-7h9p7---7-----|
A|---9---------------9>-|
E|-----7-----------------|
Chorus
Ending Chorus
G|-------------------------------------------------------------------|
D|-------------------------------------------------------------------|
A|-22222222-10-10-10-10-9999-55555-4-5-7-5555-77-5-44-5555-0000-2222-|
E|-------------------------------------------------------------------|
Ending
G|------------------------|
D|------------------------|
A|-5555-77-5-44-55-2-2-2~-|
E|------------------------|



Get this song at amazon.com      Ebay     Ringtones Ringtones  


Learn to play: Songwriting, Piano, Harmonica, Guitar
Also available at Muzikum: AFI - This Celluloid Dream lyrics

Related Afi Bass Tabs

File Thirteen bass
Wake Up Call bass
Hanging Garden bass
The Prayer Position bass
Rabbits are roadkill on route 37 bass
Who Said You Could Touch Me? bass
Dont Make Me Ill bass
Miss Murder (correct! G D A D Tuning) bass
3 12 bass
I Wanna Get A Mohawk bass
Leaving Song bass
Miss Murder Intro bass
Strength Through Wounding bass
Porphyria Cutanea Tarda bass
Despair Factor bass
A Winters Tale bass
Red Hat bass
Your Name Here bass
File13 bass
6 To bass


Guitar Tabs









All tabs are property and copyright of their owners. All tabs provided for educational purposes only. Privacy Policy, DMCA