Afi

The Prayer Position Bass Tabs



More from Afi

Afi Tabs
Afi Chords
Afi Bass
Afi Lyrics



Artist: AFI
Song: The Prayer Position
Album: Black Sails In The Sunset
Bassist: Hunter
Tuning: Standard
Tabbed by: Spidey255

Intro
G|---------------|--------------|
D|---------------|--------------|
A|-7-7-7-5/7-888-|------7-5-----|
E|---------------|-7-0------8-0-|

Verse
G|--------------------|---------------------|
D|--------------------|---------------------|
A|--------------------|---------5555555-----|
E|-0000-00-3-2-1-0000-|-3~-3333---------3h5-|

Prechorus
G|------------------------------|
D|------------------------------|
A|---------/777-/777-/777-5-3-2-|
E|-0~-7-0~----------------------|

Chorus
G|------------------------------------|----------------------------|
D|------------------------------------|----------------------------|
A|-Q-3333--------22-3-55-4-5-7777-5-2-|-3333-------555-3-5-2-3h5-Q-|
E|--------3333------------------------|------33333-----------------|

G|--------------------|-------|
D|--------------------|-------|
A|-33333----------/12-|-0-0h2-|
E|-------33333-5~-----|-------|

-verse
-prechorus
-chorus (without second part)

Bridge (Come in at 2:17)
G|------------|------------|------------|------------|
D|------------|------------|------------|------------|
A|-------5-7~-|------------|------------|---------7~-|
E|-0-3-0------|-0-3-0-5-7~-|-0-3-0-7-0~-|-0-3-0-7----|

-prechorus
-chorus

Ending 3x 1x
G|----------------|--------------|---------------------------|
D|----------------|---/8---------|---------------------------|
A|-Q--------------|-5----777-5-Q-|-5~-55-3-55-7-----2-0------|
E|---000-3-00-7-0-|--------------|---------------00-----3-00-|

Taken from The BassMasta -- http://www.tabs-database.com



Get this song at amazon.com      Ebay     Ringtones Ringtones  


Learn to play: Songwriting, Piano, Harmonica, Guitar
Also available at Muzikum: AFI - The Prayer Position lyrics

Related Afi Bass Tabs

Miss Murder 100% Correct bass
Key Lime Pie bass
No Poetic Device bass
The Despair Factor bass
Rizzo In The Box(correct) bass
Of Greatings & Goodbyes bass
Rizzo In The Box bass
What Ever I Do bass
Love Is A Many Splendored Thing bass
Last Caress bass
Miss Murder Intro bass
Sacrific Theory bass
Advances In Modern Technology bass
The Leaving Song Pt 2 bass
Highschool Football Hero bass
Hearts Frozen, Soil Sod Once More bass
Who Said You Could Touch Me? bass
The Prayer Position bass
Take The Test bass
6 To bass


Guitar Tabs









All tabs are property and copyright of their owners. All tabs provided for educational purposes only. Privacy Policy, DMCA