Afi

The Leaving Song Part Two Tabs



More from Afi

Afi Tabs
Afi Chords
Afi Bass
Afi Lyrics

tabs-database.com[http://www.tabs-database.com.com/]
Artist- AFI

Song- Leaving Song Pt.II

Album- Sing The Sorrow

Tuning- Standard half step down (Eb Bb Gb Db Ab Eb)





This is 100% correct. The intro is played with fretboard tapping, hopefully

you know what that is. This song kicks ass!

***tab*key***

~ - let ring







Intro

Eb|-------19p0-15-14----------------| |-15h17-14h15-12~~-|

Bb|-12h15-----------h15/19p15p12h15-| |------------------|

Gb|---------------------------------| |------------------|

Db|---------------------------------| |------------------|

Ab|---------------------------------|X3 |------------------|

Eb|---------------------------------| |------------------|





Verse 1

Eb|-------------------| |------------------|

Bb| ------------------| |------------------|

Gb|-12-1-19--9-9-9-9--| |-12-14-9?-9-9-9-9-|

Db|-x--x--x--x-x-x-x--| |-x--x--x--x-x-x-x-|

Ab|-10-9--7--7-7-7-7--|X2 |-10-12-7--7-7-7-7-|

Eb|-0--0--0--0-0-0-0--| |-0--0--0--0-0-0-0-|



Eb|-----------------------|

Bb|-----------------------|

Gb|-7-7-7-7-7-7-----------|

Db|-7-7-7-7-7-7-5-5-7-7-7-|X2

Ab|-5-5-5-5-5-5-5-5-7-7-7-|

Eb|-5-5-5-5-5-5-3-3-5-5-5-|





Pre-chorus

Eb|-12xx15xx14xx----14xx12-| |-12-00-15-00-14-00-------14-12-121212-151515-14-|

Bb|-------------15xx-------| |-------------------15-00-------121212-151515-15-|

Gb|------------------------| |------------------------------------------------|

Db|------------------------| |------------------------------------------------|

Ab|------------------------|X2 |------------------------------------------------|

Eb|------------------------| |------------------------------------------------|





Chorus

Eb|-----0-0-----------0-0-------------00-0---------------------5---5-5-5/7-7-----------|

Bb|-----0-0-----------0-0-------------00-0----------------5-----5--5-5-5/7-7-----------|

Gb|-----0-0-----------0-0-------------00-0------------5-----5----5-5-5-5/7-8-----------|

Db|-x/--2-2-5-5-5-4-5-2-2-5-5-5-4-5-4-22-2-5-5-5-4-5-7-7-7----7----7-7-7/9-9-2-2/9-9-9-|

Ab|-x/--2-2-5-5-5-5-5-2-2-5-5-5-5-5-5-22-2-5-5-5-5-5-------------------------2-2/x-x-x-|

Eb|-x/--0-0-3-3-3-3-3-0-0-3-3-3-3-3-3-00-0-3-3-3-3-3-------------------------0-0/7-7-7-|



Verse 2

Eb|-------------------| |------------------|

Bb|-------------------| |------------------|

Gb|-12-1-19?-9-9-9-9--| |-12-14-9--9-9-9-9-|

Db|-x--x--x?-x-x-x-x--| |-x--x--x--x-x-x-x-|

Ab|-10-9--7?-7-7-7-7--|X2 |-10-12-7--7-7-7-7-|

Eb|-0--0--0?-0-0-0-0--| |-0--0--0--0-0-0-0-|



Eb|-----------------------|

Bb|-----------------------|

Gb|-7-7-7-7-7-7-----------|

Db|-7-7-7-7-7-7-5-5-7-7-7-|

Ab|-5-5-5-5-5-5-5-5-7-7-7-|

Eb|-5-5-5-5-5-5-3-3-5-5-5-|



Eb |---------------------------------------------------------|

Bb |---------------------------------------------------------|

Gb |-12-1-19--9-9-9-9--12-14-12--12121212---12-14-9--9-9-9-9-|

Db |-x--x--x--x-x-x-x--x--x--x---x-x-x-x----x--x--x--x-x-x-x-|

Ab |-10-9--7--7-7-7-7--10-12-10--10101010---10-12-7--7-7-7-7-|

Eb |-0--0--0--0-0-0-0--0--0--0---0-0-0-0----0--0--0--0-0-0-0-|



Eb|-----------------------|

Bb|-----------------------|

Gb|-7-7-7-7-7-7-----------|

Db|-7-7-7-7-7-7-5-5-7-7-7-|

Ab|-5-5-5-5-5-5-5-5-7-7-7-|

Eb|-5-5-5-5-5-5-3-3-5-5-5-|





Chorus

Eb|-----0-0-----------0-0-------------00-0---------------------5---5-5-5/7-7-|

Bb|-----0-0-----------0-0-------------00-0----------------5-----5--5-5-5/7-7-|

Gb|-----0-0-----------0-0-------------00-0------------5-----5----5-5-5-5/7-8-|

Db|-x/--2-2-5-5-5-4-5-2-2-5-5-5-4-5-4-22-2-5-5-5-4-5-7-7-7----7----7-7-7/9-9-|X2

Ab|-x/--2-2-5-5-5-5-5-2-2-5-5-5-5-5-5-22-2-5-5-5-5-5-------------------------|

Eb|-x/--0-0-3-3-3-3-3-0-0-3-3-3-3-3-3-00-0-3-3-3-3-3-------------------------|



Bridge

Eb|---------------------------------------------|

Bb|---------------------------------------------|

Gb|---------------------------------------------|

Db|-2222-222-222222-2222-222-222222-2222-222222-|

Ab|-2222-222-222222-2222-222-222222-2222-222222-|

Eb|-0000-000-000000-0000-000-000000-0000-000000-|

palm mute.......................................





Eb|-----------------------------------------------------------|

Bb|-------------------------5~--------------------------------|

Gb|-4------5--------7-4/5/4-5~---4------5--------7-777-7/9-99-|

Db|-x-2222-x-222222-x-x/x/x---5~-x-2222-x-222222-x-xxx-x/x-xx-|

Ab|-2-2222-3-222222-5-2/3/2---5~-2-2222-3-222222-5-555-5/7-77-|

Eb|-0-0000-0-000000-0------------0-0000-0-000000--------------|



Interlude

Eb|--14--14--15--------14--17--15--------14--14--15--------17--17--19~-|

Bb|----12--12--12-12-12--12--12--12-12-12--12--12--12-12-12--12--12----|

Gb|--------------------------------------------------------------------|

Db|--------------------------------------------------------------------|X2

Ab|--------------------------------------------------------------------|

Eb|--------------------------------------------------------------------|





Eb|---------------------------------------------------------------------------------|

Bb|------------------1313131313131313-16-16-16-16-16-16-16-16-----------------------|

Gb|-8-8-8-8-8-8-8-8--1111111111111111-14-14-14-14-14-14-14-14-----------------------|

Db|-7-7-7-7-7-7-7-7--1010101010101010-13-13-13-13-13-13-13-13-2222-2222-2222-2222-2-|

Ab|-6-6-6-6-6-6-6-6--9-9-9-9-9-9-9-9--12-12-12-12-12-12-12-12-2222-2222-2222-2222-2-|

Eb|-0-0-0-0-0-0-0-0--0-0-0-0-0-0-0-0--0--0--0--0--0--0--0--0--0000-0000-0000-0000-0-|





Chorus

Eb|-----0-0-----------0-0-------------00-0---------------------5---5-5-5/7-7-|

Bb|-----0-0-----------0-0-------------00-0----------------5-----5--5-5-5/7-7-|

Gb|-----0-0-----------0-0-------------00-0------------5-----5----5-5-5-5/7-8-|

Db|-x/--2-2-5-5-5-4-5-2-2-5-5-5-4-5-4-22-2-5-5-5-4-5-7-7-7----7----7-7-7/9-9-|

Ab|-x/--2-2-5-5-5-5-5-2-2-5-5-5-5-5-5-22-2-5-5-5-5-5-------------------------|

Eb|-x/--0-0-3-3-3-3-3-0-0-3-3-3-3-3-3-00-0-3-3-3-3-3-------------------------|



Eb|-----0-0-----------0-0-------------00-0---------------------5----------------7-----|

Bb|-----0-0-----------0-0-------------00-0----------------5------5---------7------7---|

Gb|-----0-0-----------0-0-------------00-0------------5-----5------5---7-----7------7-|

Db|-x/--2-2-5-5-5-4-5-2-2-5-5-5-4-5-4-22-2-5-5-5-4-5-7-7-7----7-------9-9-9----9------|

Ab|-x/--2-2-5-5-5-5-5-2-2-5-5-5-5-5-5-22-2-5-5-5-5-5----------------------------------|

Eb|-x/--0-0-3-3-3-3-3-0-0-3-3-3-3-3-3-00-0-3-3-3-3-3----------------------------------|



Ending

Eb|--------------------------------------------------5~-|

Bb|--------------------------------------------------5~-|

Gb|--------------------------------------------------5~-|

Db|----------------------------2222-2222-2222-2222-2----|

Ab|-9--9--9--9--10-9--9--9--9--2222-2222-2222-2222-2----|

Eb|-11-11-11-11-12-11-11-11-11-0000-0000-0000-0000-0----|



Eb|-12~-------------|

Bb|--------7~--7~---|

Gb|-----5~---7~--7~-|

Db|-----------------|

Ab|-----------------|

Eb|-----------------|



Any questions or corrections email me at webmaster at tabs-database.com.com.

Added by tabs-database.com.com and our distinguished partners
Get this song at amazon.com      Ebay     Ringtones Ringtones  


Learn to play: Songwriting, Piano, Harmonica, Guitar
More AFI lyrics available at Muzikum

Related Afi Tabs

Dancing Through Sunday (solo) tabs
Crop Tub tabs
A Winter's Tale tabs
Fall Children Intro tabs
The Leaving Song Part Ii tabs
Your Name Here tabs
The Devil Loves You tabs
Weathered Tome tabs
Take The Test tabs
37 mm tabs
Consult My Lover tabs
Malleus Malificarum tabs
God Called In Sick Today tabs
Salt For Your Wounds tabs
Lithium tabs
Midnight Sun tabs
Love Like Winter Bass tabs
Despair Factor tabs
Black Sails In The Sunset Album tabs
Death Of The Seasons tabs


Guitar Tabs









All tabs are property and copyright of their owners. All tabs provided for educational purposes only. Privacy Policy, DMCA