Afi

The Greatest Dissapointment Bass Tabs



More from Afi

Afi Tabs
Afi Chords
Afi Bass
Afi Lyrics



Intro
----------------------------------| 4x start soft and gradually play louder
--00-00-00-00-0-0-00-00-00-00-0-0-|
----------------------------------|
----------------------------------|


------02-----------02-------------02-----------23-----|2x
-0-00---3------------3-------0-00---3------------3----|
----------3-3--1-11-----3-3-----------3-3--1-11----3-3|
------------------------------------------------------|

Pause for a sec

-77-77-77-77-7-7-|
-----------------|
-----------------|
-----------------|

Verse 1

------02-----------02-------------02-----------23-----|2x
-0-00---3------------3-------0-00---3------------3----|
----------3-3--1-11-----3-3-----------3-3--1-11----3-3|
------------------------------------------------------|

In between verses

-00-00-00-00-0-0-00-00-00-0-0-|
------------------------------|
------------------------------|
------------------------------|

verse 2
------02-----------02-------------02-----------23-----|2x
-0-00---3------------3-------0-00---3------------3----|
----------3-3--1-11-----3-3-----------3-3--1-11----3-3|
------------------------------------------------------|

Pre Chorus

-00-00-00-00-0-0-00-00-00-0-0-|
------------------------------|
------------------------------|
------------------------------|

Chorus

----------------------------------------------------------| 2x
----------------------------------------------------------|
----------------------------------------------------------|
--7-777--3-333-5-555-8-8-8--0-101010--0-888-0-666-0-5-55--|

Post Chorus
-----------------|
-----------------|
-----------------|
-5--323---2-3-0--|

Verse

------02-----------02-------------02-----------23-----|2x
-0-00---3------------3-------0-00---3------------3----|
----------3-3--1-11-----3-3-----------3-3--1-11----3-3|
------------------------------------------------------|

Pre Chorus

-00-00-00-00-0-0-00-00-00-0-0-|
------------------------------|
------------------------------|
------------------------------|

Chorus 2

----------------------------------------------------------| 2x
----------------------------------------------------------|
----------------------------------------------------------|
--7-777--3-333-5-555-8-8--8--0-101010--0-888-0-666-0-5-55-|

-------------------------| 3x
-------------------------|
-------------------------|
-7-777-3-333-5-555-8-8-8-|


Post Chorus 2
-------------|
-------------|
-------------|
--3--2--1---0|


Bridge

----------------------------------------------------------------------|
----------------------------------------------------------------------|
----------------------------------------------------------------------|
-0000-7-0000-5-0000-3-0000-7-0000-5-0000-3-0000--0000-7-0000-5-0000-3-|

---------------------|
---------------------|
-99-99-99-9-9-9------|
---------------------|

--------------------------|x2
--------------------------|
---787575-3---------------|
------------3-33-55-3-2-0-|


------02-----------02-------------02-----------2/53-75-43------|
-0-00---3------------3-------0-00---3---------------------3-----|
----------3-3--1-11-----3-3-----------3-3--1-11-------------3-3-|
----------------------------------------------------------------|

------02-----------02-------------02-----------23-----|
-0-00---3------------3-------0-00---3------------3----|
----------3-3--1-11-----3-3-----------3-3--1-11----3-3|
------------------------------------------------------|

Pre Chorus

-00-00-00-00-0-0-00-00-00-0-0-|
------------------------------|
------------------------------|
------------------------------|

Chorus
----------------------------------------------------------| 2x
----------------------------------------------------------|
----------------------------------------------------------|
--7-777--3-333-5-555-8-8--8--0-101010--0-888-0-666-0-5-55-|

-------------------------| 3x
-------------------------|
-------------------------|
-7-777-3-333-5-555-8-8-8-|



Get this song at amazon.com      Ebay     Ringtones Ringtones  


Learn to play: Songwriting, Piano, Harmonica, Guitar
More AFI lyrics available at Muzikum

Related Afi Bass Tabs

Third Season bass
At A Glance bass
Dancing Through Sunday bass
Despair Factor bass
Exsanguination bass
Miss Murder bass
The Hanging Garden bass
Rizzo In A Box bass
Total Immortal bass
Miss Murder (correct! G D A D Tuning) bass
The Leaving Song Pt 2 bass
Miss Murder 100% Correct bass
Transference bass
Ny Quil bass
Holloween bass
Hidden Track To Sing The Sorrow bass
An Introduction bass
Ever And A Day bass
He Who Laughs Last bass
Self Pity bass


Guitar Tabs









All tabs are property and copyright of their owners. All tabs provided for educational purposes only. Privacy Policy, DMCA