Afi

The Great Disappointment Bass Tabs



More from Afi

Afi Tabs
Afi Chords
Afi Bass
Afi Lyrics



AFI - The Great Disappointment
Bassist - Hunter
Note* All Sing The Sorrow Songs Are Tuned Half A Step Down
Tabbed By: spidey255


Intro
G|----|
D|----|
A|-5>-|
E|----|

Verse
G|------------------------------------------------------------------|
D|-------5h7-------------5h7-------------5h7-------------8h10-------|
A|-5-5-5-----8---------------8-----5-5-5-----8----------------8-----|
E|-------------8-8-6-6-6-------8-8-------------8-8-6-6-6--------8-8-|

-Go back to intro then the last round of fives you hit the next octave G|-7>-|
-Verse

Pre-Chorus
G|-------------------------------------|
D|-------------------------------------|
A|---------8-8-8-8---------10-10-10-10-|
E|-6-6-6-6---------8-8-8-8-------------|

-Intro
-Verse
-Prechorus
Chorus 2x
Post Chorus

Chorus
G|-----------------|
D|-----------------|
A|-1>-------3>-5>>-|
E|----1>-3>--------|

Post Chorus
G|----------------------------------|
D|--------3-----------------5-------|
A|1-1-1-1---1-1-1-1-3-3-3-3---3-3-5-|
E|----------------------------------|

Distorted Verse
G|--------------------------|---------|
D|--------------------------|---------|
A|-5-5-8-8-8-5-----8-8-8-10-|-13>-15>-|
E|-------------6-6----------|---------|

-Intro
-Chorus

Chorus Extension you'll know which ones to play and where
G|----------------|------------------------|
D|----------------|------------------------|
A|-1>-------3>-5>-|-1>-------5>-1>---3>----|
E|----1>-3>-------|----1>-3>-------1>---3>-|

Post Chorus
G|---------7-|
D|-----------|
A|-5-5-5-5---|
E|-----------|

Bridge
G|---------------------------------|-------------|
D|---------------------------------|-------------|
A|-5-5-----5-5-8-8-5-5-------------|-12-12-12-12-|
E|-----8-8-------------8-8-5-5-6-6-|-------------|

2nd part of Bridge
G|-----------------|-------------|
D|-----------------|-------------|
A|-----------------|-17-17-17-17-|
E|-5-5-3-3-6-6-5-5-|-------------|

Third Part Of Bridge
G|--------------------------------------------------|
D|--------------------------------------------------|
A|-1312-10-12-10-7-8~-888888-10-10-108-5~-3/55555-|
E|--------------------------------------------------|

Verse Variation here's the change
G|----------------------------------------------------------------------|
D|-------5h7-------------5h7-------------5h7-------------8h10-8-7-8-7-5-|
A|-5-5-5-----8---------------8-----5-5-5-----8--------------------------|
E|-------------8-8-6-6-6-------8-8-------------8-8-6-6-6----------------|

G|------------------------------------------------------------------|
D|-------5h7-------------5h7-------------5h7-------------8h10-------|
A|-5-5-5-----8---------------8-----5-5-5-----8----------------8-----|
E|-------------8-8-6-6-6-------8-8-------------8-8-6-6-6--------8-8-|

G|---------------------------|---------------------|
D|---------------------------|---------------------|
A|-----8888-10-10-10-10------|-5~-17-17-17-17-17-5-|
E|-6666-----------------8888-|---------------------|

-Chorus (Extended)

You can also play the extended chorus like this so that 5 after the 3 isn't awkward
G|--------------------------------------|----------------------------------|
D|-8-888-------------------10-10-10-12>-|-8-888----------------------------|go back to first part but don't
A|-------8-888-10-10-10-10--------------|-------8-888-10-10-10-10----------|play the 12's at the end
E|--------------------------------------|-------------------------10-10-10-|

Taken from The BassMasta -- http://www.tabs-database.com



Get this song at amazon.com      Ebay     Ringtones Ringtones  


Learn to play: Songwriting, Piano, Harmonica, Guitar
Also available at Muzikum: AFI - The Great Disappointment lyrics

Related Afi Bass Tabs

Highschool Football Hero bass
Total Immortal (corrected 100% Right) bass
Consult My Lover bass
Catch A Hot One bass
The Deathless Ones bass
3 1 2 bass
Love Is A Many Splendored Thing bass
Lower It bass
File Thirteen bass
Values Here bass
But Home Is Nowhere bass
Wester bass
Porphyria Cutanea Tarda bass
An Introduction bass
Kill Caustic bass
Leaving Song bass
Hanging Garden bass
The missing frame bass
Fall Children bass
Exsanguination bass


Guitar Tabs









All tabs are property and copyright of their owners. All tabs provided for educational purposes only. Privacy Policy, DMCA