Afi

Sts Hidden Track Bass Tabs



More from Afi

Afi Tabs
Afi Chords
Afi Bass
Afi Lyrics



Artist: AFI
Song: This Time Imperfect
Album: This Sing The Sorrow
Instrument: Bass
Bassist: Hunter
Tabbed by: spidey255

I labeled this as "STS Hidden Track" because mxtabs wouldn't let me post it as "This Time
Imperfect"

Start in the second measure of the first repeated chorus
G|--------------------------------------------------------------|
D|----12---------------------9----9-10-12-12-12-9-10-10---------|
A|-99----9-10-10-10-10-10-10---10-----------------------10-9-7~-|
E|--------------------------------------------------------------|

G|--------------------------------------------|
D|--------------------------------------------|
A|---0-2-3-5-5-5h7---7-7-9-10~-12-10-9-10-9-7-|
E|-3~--------------0--------------------------|

Verse
G|-------------------------------------------------|
D|-------------------------------------------------|
A|-----2-3-5-5~-5h7---7-7-9-10~-12-10-9---10-9-7~--|
E|-3~-3-------------0------------------10----------|

G|----------------------|
D|----------------------|
A|---------3-4-5-5-5-7>-|
E|-0-0-2-5--------------|

Chorus
G|-------------------------------------------------------------------|
D|-------------------------------------------------------------------|
A|-----------------5-----------------2---2-3-5-5-5-2-3---3--2-0------|
E|-0-0-0-0-0-0-2-2---2-3-3-3-3-3-3-3---3---------------3----------0>-|

G|-----------------|----|
D|-----------------|----|
A|-3-3-3-3-5-5-5-5-|-7>-|
E|-----------------|----|

Bridge (very low)
G|----------|-----------|
D|------5---|------7-5~-|
A|-7~-7---5-|-7~-7------|
E|----------|-----------|

Prechorus
G|----------------------------|
D|----------------------------|
A|-7>-/777-/777-/777-/77/14



Get this song at amazon.com      Ebay     Ringtones Ringtones  


Learn to play: Songwriting, Piano, Harmonica, Guitar
Also available at Muzikum: AFI - Sts Hidden Track lyrics

Related Afi Bass Tabs

Midnight Sun bass
An Introduction bass
Open Your Eyes bass
The Deathless Ones bass
Let It Be Broke bass
Shatty Fatimas bass
Silver And Cold bass
Miss Murder bass
The Checkered Demon bass
Sts Hidden Track bass
Reivers Music bass
Dream Of Waking bass
Yurf Rendenmein bass
Miss Murder (correct! G D A D Tuning) bass
Dont Make Me Ill bass
Of Greetings And Goodbyes bass
File13 bass
Soap Box Derby bass
Rizzo In A Box bass
The Mother In Me bass


Guitar Tabs









All tabs are property and copyright of their owners. All tabs provided for educational purposes only. Privacy Policy, DMCA